Song name
# A B C D E F G H I J K L M N O P Q R S T U V W X Y Z

Alexisonfire - Hey Its Your Funeral Mama tab

                         Hey It's Your Funeral Mama
                               by Alexisonfire
                             tabbed by: Omarion111
                              Standard tuning
Guitar 1 = Wade(backup)
Guitar 2 = Dallas(lead)

      Intro - part 1
      Guitar 1

e-------xx-xx-xx-xx-xx-------xx-xx-xx-xx-xx-------xx-xx-xx-xx-xx--|
B-------xx-xx-xx-xx-xx-------xx-xx-xx-xx-xx-------xx-xx-xx-xx-xx--|
G--55-5-xx-xx-xx-xx-xx-/55-5-xx-xx-xx-xx-xx-------xx-xx-xx-xx-xx--|
D--55-5-xx-xx-xx-xx-xx-/55-5-xx-xx-xx-xx-xx-66-66-xx-xx-xx-xx-xx--|
A--33-3-xx-xx-xx-xx-xx-/33-3-xx-xx-xx-xx-xx-66-66-xx-xx-xx-xx-xx--|
E--33-3-xx-xx-xx-xx-xx-/33-3-xx-xx-xx-xx-xx-44-44-xx-xx-xx-xx-xx--|

e-------xx-xx-xx-xx-xx--|
B-------xx-xx-xx-xx-xx--|
G-------xx-xx-xx-xx-xx--|  (x2)
D-66-66-xx-xx-xx-xx-xx--|
A-66-66-xx-xx-xx-xx-xx--|
E-44-44-xx-xx-xx-xx-xx--|

    Intro - part 2 (guitar 1)

e------------------------------------|
B------------------------------------|
G--5-5-555-3-33-333------------------|  (x2)
D--5-5-555-3-33-333-6-6-6666-66-666--|
A--3-3-333-1-11-111-6-6-6666-66-666--|
E--3-3-333-1-11-111-4-4-4444-44-444--|

    Intro - Part 2 (guitar 2)

e-----------------------------------------------------------------|
B-----------------------------------------------------------------|
G-----------------8-10-8----12------------------8-10-8----/15-12--|  (x2)
D------------8-10--------10----------------8-10--------10---------|
A-----6-8-10------------------------6-8-10------------------------|
E--/8----------------------------/8-------------------------------|

    Verse - Part 1 (guitar 1)

e------xx-xx-xx-xx-xx------xx-xx-xx-xx-xx--|
B------xx-xx-xx-xx-xx------xx-xx-xx-xx-xx--|
G/55-5-xx-xx-xx-xx-xx-55-5-xx-xx-xx-xx-xx--|
D/55-5-xx-xx-xx-xx-xx-55-5-xx-xx-xx-xx-xx--|
A/33-3-xx-xx-xx-xx-xx-33-3-xx-xx-xx-xx-xx--|
E/33-3-xx-xx-xx-xx-xx-33-3-xx-xx-xx-xx-xx--|
       The sky is blue,  the grass is brown...

    Verse - Part 2 (guitar 1)          Part 3 (guitar 1)

e-----------------------------------|--------------------------------|
B-----------------------------------|--------------------------------|
G-----------------------------------|--------------------------------|
D-6666666666666666-3333333333333333-|-6666666666666666-333333-666666-|
A-6666666666666666-3333333333333333-|-6666666666666666-333333-666666-|
E-4444444444444444-1111111111111111-|-6666666666666666-111111-444444-|
    play part 1 then alternate during the verse's with part 2 and 3.
   (play part 2 after part 1 first, then play part 1 again and play part 3
    afterwards and repeat.)

    Verse - part 1(guitar 2) PLAY ONTOP OF PART 2 & 3 of the guitar1 verse

e--------------------------------------------------------------------------|
B--------------------------------------------------------------------------|
G-1313-1212-1313-1212-1313-1212-1313-1212-1313-1212-1313-1212-1313-1212-13\|
D--------------------------------------------------------------------------|
A--------------------------------------------------------------------------|
E--------------------------------------------------------------------------|

    Verse - part 2(guitar 2) Play this the 4th time dallas plays ontop of guitar 1 
to the song for the timing.)

e----------------------------------------------------------------------|
B----------------------------------------------------------------------|
G-1313-1212-1313-1212-1313-1212-1313-1212-15p12-12-13p12-12-15p12-12---|
D----------------------------------------------------------------------|
A----------------------------------------------------------------------|
E----------------------------------------------------------------------|

e-----------------|
B-----------------|
G-13p12-12--13/---|
D-----------------|
A-----------------|
E-----------------|

    Chorus - guitar 1

e------------------------------------|
B------------------------------------|
G--5-5-555-3-33-333------------------|  (x4)
D--5-5-555-3-33-333-6-6-6666-66-666--|
A--3-3-333-1-11-111-6-6-6666-66-666--|
E--3-3-333-1-11-111-4-4-4444-44-444--|

    Chorus - guitar 2

e-----------------------------------------------------------------|
B-----------------------------------------------------------------|
G-----------------8-10-8----12------------------8-10-8----/15-12--|  (x4)
D------------8-10--------10----------------8-10--------10---------|
A-----6-8-10------------------------6-8-10------------------------|
E--/8----------------------------/8-------------------------------|

    Post Chorus riff & verse - guitar 1

e---------------------------------------------------------------------|
B---------------------------------------------------------------------|
G-5555555555555555-5555555555555555-----------------------------------|(x7)
D-5555555555555555-5555555555555555-6666666666666666-3333333333333333-|
A-3333333333333333-3333333333333333-6666666666666666-3333333333333333-|
E-3333333333333333-3333333333333333-4444444444444444-1111111111111111-|

    Post chorus riff & verse - guitar 2

e---------------------------------------------|
B-------------------------------11------------|
G-8-8--5-5-------------8-8--5-5--x--12/13\12--|   (x8)
D-x-x--x-x--8--5/6\5---x-x--x-x--8---x--------|
A-6-6--3-3--x--x-------6-6--3-3-----10/11\10--|
E-----------6--3/4\3--------------------------|

      *PLAY CHORUS AGAIN*

    Post Chorus riff - guitar 1

e------------------------------------|
B-5-55-555-3-33-333------------------|
G-5-55-555-3-33-333-6-66-666-666-666-|   (x4)
D-3-33-333-1-11-111-6-66-666-666-666-|
A-3-33-333-1-11-111-4-44-444-444-444-|


    Post Chorus riff - guitar 2

e---------------------------------------------|
B---------------------------------------------|
G-15-15--12-12--10-10-10\12--8-8\12--5-5------|
D--x--x---x--x---x--x--x-----x-x-----x-x--8-8-|
A-13-13--10-10---8--8--8\10--6-6\10--3-3--x-x-|
E-----------------------------------------6-6-|


    Bridge - part 1

e-------------------------------------------|
B-------------------------------------------|
G-5-----8-7-8-10-13-12-13-12-13-12-12\13/12-|
D-x-6-5-x-x-x--x--x--x--x--x--x--x--x-------|
A-3-x-x-6-5-6--8-11-10-11-10-11-10-10\11/10-|
E---4-3-------------------------------------|

    Bridge - part 2 (guitar 1)

e----------------|
B----------------|
G-5--------------|   (x4)
D-5--3-3-3-6-6-6-|
A-3--3-3-3-6-6-6-|
E-3--1-1-1-4-4-4-|


   Bridge - part 2 (guitar 2)*comes in after 2 measures of guitar 1

e-11-10----11-10--------11-10---------------------|
B-------11-------11-----------11------------11/13-|
G-------------------12-------------12-10h12-------|
D-------------------------------------------------|
A-------------------------------------------------|
E-------------------------------------------------|


    *Play Chorus*

     Outro - guitar 1

e--------------------|
B--------------------|
G--5--5--5--5--5-----|
D--5--5--5--5--5--6--|
A--3--3--3--3--3--6--|
E--3--3--3--3--3--4--|


    Outro - guitar 2

e------------------------|
B------------------------|
G------------------------|
D--13-13-13-13-13-----6--|
A---x--x--x--x--x-----x--|
E--11-11-11-11-11-/11-4--|

thats the song.
Tap to rate this tab
# A B C D E F G H I J K L M N O P Q R S T U V W X Y Z