Song name
# A B C D E F G H I J K L M N O P Q R S T U V W X Y Z

Alexisonfire - Got Freedom tab

By:Manic Prosperity - So Sick

e|----------------------------------------------------------------------|
B|----------------------------------------------------------------------|
G|----------------------------------------------------------------------|
D|-----9-----5---7------------------------------------------------------|3x
A|-----9-4x--5---7------------------------------------------------------|
E|-----7-----3---5------------------------------------------------------|

e-----------------------------------------------------------------------|
B-----------------------------------------------------------------------|
G----------7------------------------------------------------------------|
D----9-----7---7--------------------------------------------------------|
A----9-4x--5---7--------------------------------------------------------|
E----7---------5--------------------------------------------------------|

e|----------------------------------------------------------------------|
B|----------------------------------------------------------------------|
G|----------------------------------------------------------------------|
D|-----9-----5---7------------------------------------------------------|3x
A|-----9-4x--5---7------------------------------------------------------|
E|-----7-----3---5------------------------------------------------------|

e-----------------------------------------------------------------------|
B-----------------------------------------------------------------------|
G----------7------------------------------------------------------------|
D----9-----7---7--------------------------------------------------------|
A----9-4x--5---7--------------------------------------------------------|
E----7---------5--------------------------------------------------------|

e|----------------------------------------------------------------------|
B|----------------------------------------------------------------------|
G|----------------------------------------------------------------------|
D|-----9-----5---7------------------------------------------------------|3x
A|-----9-4x--5---7------------------------------------------------------|
E|-----7-----3---5------------------------------------------------------|

e-----------------------------------------------------------------------|
B-----------------------------------------------------------------------|
G----------7------------------------------------------------------------|
D----9-----7---7--------------------------------------------------------|
A----9-4x--5---7--------------------------------------------------------|
E----7---------5--------------------------------------------------------|

e|----------------------------------------------------------------------|
B|----------------------------------------------------------------------|
G|----------------------------------------------------------------------|
D|-----9-----5---7------------------------------------------------------|3x
A|-----9-4x--5---7------------------------------------------------------|
E|-----7-----3---5------------------------------------------------------|

e-----------------------------------------------------------------------|
B-----------------------------------------------------------------------|
G----------7------------------------------------------------------------|
D----9-----7---7--------------------------------------------------------|
A----9-4x--5---7--------------------------------------------------------|
E----7---------5--------------------------------------------------------|

e-----------------------------------------------------------------------|
B-----------------------------------------------------------------------|
G-----------10-----9----------------------------------------------------|
D----7------10-4x--9-4x-------------------------------------------------|4x
A----7-8x---8------7----------------------------------------------------|
E----5------------------------------------------------------------------|

repeat and yur done
tabbed by mark
Tap to rate this tab
 
# A B C D E F G H I J K L M N O P Q R S T U V W X Y Z