Song name
# A B C D E F G H I J K L M N O P Q R S T U V W X Y Z

Alexisonfire - No Transitory tab

  Gtr I
   Q.    Q.    Q     +E   Q.    Q   E E     Q.   Q.   E E   +E  Q.   Q  E E
|-----------------|---------------------|-----------------|-----------------|
|-----------------|---------------------|-----------------|-----------------|
|-----------------|---------------------|-----------------|-----------------|
|-/7-----6--------|---------------------|-/11----7--------|-----------------|
|--------------7--|--(7)--7-----7---7-7-|-------------7h9-|-(9)-9----9--9-9-|
|-----------------|---------------------|-----------------|-----------------|
|
| Gtr II
|  Q.    Q.    Q     +E   Q.    Q   Q       Q.   Q.   Q     +E  Q.   Q  Q
|-----------------|---------------------|-----------------|-----------------|
|-----------------|---------------------|-----------------|-----------------|
|-----------------|---------------------|-----------------|-----------------|
|-11----11----11--|-(11)-11----11--11---|---7----7----7---|-(7)-7----7--7---|
|-11----11----11--|-(11)-11----11--11---|---7----7----7---|-(7)-7----7--7---|
|--9-----9-----9--|--(9)--9-----9---9---|---5----5----5---|-(5)-5----5--5---|


  Q=195
  F#5
  E E E E E E E E   E E E E E E E E   E E E E E E E E   E E E E E E E E
|-----------------|-----------------|-----------------|------------------|
|-----------------|-----------------|-----------------|------------------|
|-----------------|-----------------|-----------------|------------------|
|-4-4-4-4-4-4-4-4-|-4-4-4-4-4-4-4-4-|-4-4-4-4-4-4-4-4-|-4-4-4-4-4-4-4-4--|
|-4-4-4-4-4-4-4-4-|-4-4-4-4-4-4-4-4-|-4-4-4-4-4-4-4-4-|-4-4-4-4-4-4-4-4--|
|-2-2-2-2-2-2-2-2-|-2-2-2-2-2-2-2-2-|-2-2-2-2-2-2-2-2-|-2-2-2-2-2-2-2-2--|
|
| E E E E E E E E   E E E E E E E E   E E E E E E E E   E E E E E E E E
|-----------------|-----------------|-----------------|------------------|
|-----------------|-----------------|-----------------|------------------|
|-----------------|-----------------|-----------------|------------------|
|-4-4-4-4-4-4-4-4-|-4-4-4-4-4-4-4-4-|-4-4-4-4-4-4-4-4-|-4-4-4-4-4-4-4-4--|
|-4-4-4-4-4-4-4-4-|-4-4-4-4-4-4-4-4-|-4-4-4-4-4-4-4-4-|-4-4-4-4-4-4-4-4--|
|-2-2-2-2-2-2-2-2-|-2-2-2-2-2-2-2-2-|-2-2-2-2-2-2-2-2-|-2-2-2-2-2-2-2-2--|


    Q=185
    C#5                                     A5
    Gtr I
     Q.    Q.    Q     +E   Q.    Q   E E     Q.   Q.   E E   +E  Q.   Q  E E
||------------------|---------------------|-----------------|----------------
||o-----------------|---------------------|-----------------|----------------
||------------------|---------------------|-----------------|----------------
||--/7-----6--------|---------------------|-/11----7--------|----------------
||o--------------7--|--(7)--7-----7---7-7-|-------------7h9-|-(9)-9----9--9-9
||------------------|---------------------|-----------------|----------------
|
|   Gtr II
|    Q.    Q.    Q     +E   Q.    Q   Q       Q.   Q.   Q     +E  Q.   Q  Q
||------------------|---------------------|-----------------|----------------
||o-----------------|---------------------|-----------------|----------------
||------------------|---------------------|-----------------|----------------
||--11----11----11--|-(11)-11----11--11---|---7----7----7---|-(7)-7----7--7--
||o-11----11----11--|-(11)-11----11--11---|---7----7----7---|-(7)-7----7--7--
||---9-----9-----9--|--(9)--9-----9---9---|---5----5----5---|-(5)-5----5--5--


  Q=195
  F#5
  E E E E E E E E   E E E E E E E E   E E E E E E E E   E E E E E E E E
|-----------------|-----------------|-----------------|-------------------||
|-----------------|-----------------|-----------------|------------------o||
|-----------------|-----------------|-----------------|-------------------||
|-4-4-4-4-4-4-4-4-|-4-4-4-4-4-4-4-4-|-4-4-4-4-4-4-4-4-|-4-4-4-4-4-4-4-4---||
|-4-4-4-4-4-4-4-4-|-4-4-4-4-4-4-4-4-|-4-4-4-4-4-4-4-4-|-4-4-4-4-4-4-4-4--o||
|-2-2-2-2-2-2-2-2-|-2-2-2-2-2-2-2-2-|-2-2-2-2-2-2-2-2-|-2-2-2-2-2-2-2-2---||
|
| E E E E E E E E   E E E E E E E E   E E E E E E E E   E E E E E E E E
|-----------------|-----------------|-----------------|-------------------||
|-----------------|-----------------|-----------------|------------------o||
|-----------------|-----------------|-----------------|-------------------||
|-4-4-4-4-4-4-4-4-|-4-4-4-4-4-4-4-4-|-4-4-4-4-4-4-4-4-|-4-4-4-4-4-4-4-4---||
|-4-4-4-4-4-4-4-4-|-4-4-4-4-4-4-4-4-|-4-4-4-4-4-4-4-4-|-4-4-4-4-4-4-4-4--o||
|-2-2-2-2-2-2-2-2-|-2-2-2-2-2-2-2-2-|-2-2-2-2-2-2-2-2-|-2-2-2-2-2-2-2-2---||


  Q=192
  C#5                                     A5
   Q.    Q.    Q     +E   Q.    Q   E E     Q.   Q.   Q    +W
|-----------------|---------------------|----------------|--------|
|-----------------|---------------------|----------------|--------|
|-----------------|---------------------|----------------|--------|
|-/7-----6--------|---------------------|-/11----7----6--|-(6)----|
|--------------7--|--(7)--7-----7---7-7-|----------------|--------|
|-----------------|---------------------|----------------|--------|
|
|  Q.    Q.    Q     +E   Q.    Q   Q       Q.   Q.   Q    +W
|-----------------|---------------------|----------------|--------|
|-----------------|---------------------|----------------|--------|
|-----------------|---------------------|----------------|--------|
|-11----11----11--|-(11)-11----11--11---|---7----7----7--|-(7)----|
|-11----11----11--|-(11)-11----11--11---|---7----7----7--|-(7)----|
|--9-----9-----9--|--(9)--9-----9---9---|---5----5----5--|-(5)----|


 Verse
  +W           +W           +W
|------------|------------|---------------------------------------|
|------------|------------|---------------------------------------|
|------------|------------|---------------------------------------|
|-(6)--------|-(6)--------|-(6)-----------------------------------|
|------------|------------|---------------------------------------|
|------------|------------|---------------------------------------|
|
| +W           +W           +W
|------------|------------|---------------------------------------|
|------------|------------|---------------------------------------|
|------------|------------|---------------------------------------|
|-(7)--------|-(7)--------|-(7)-----------------------------------|
|-(7)--------|-(7)--------|-(7)-----------------------------------|
|-(5)--------|-(5)--------|-(5)-----------------------------------|


  +W
|----------------------------------------------------------------------------
|----------------------------------------------------------------------------
|----------------------------------------------------------------------------
|-(6)------------------------------------------------------------------------
|----------------------------------------------------------------------------
|----------------------------------------------------------------------------
|
| +W
|----------------------------------------------------------------------------
|----------------------------------------------------------------------------
|----------------------------------------------------------------------------
|-(7)------------------------------------------------------------------------
|-(7)------------------------------------------------------------------------
|-(5)------------------------------------------------------------------------


  N.C.
  Gtr II
  E Q  E Q  Q    +Q    H.         +W            +W
|--------------|---------------|-------------|---------|
|--------------|---------------|-------------|---------|
|-----------9--|-(9)-----------|-------------|---------|
|--------------|------11-------|-(11)--------|-(11)----|
|-7-9--7-9-----|---------------|-------------|---------|
|--------------|---------------|-------------|---------|


  E Q  E Q  Q    +Q    H     Q     +W              +W      5x
|--------------|----------------|-------------||-----------||
|--------------|----------------|-------------||o---------o||
|-----------9--|-(9)--------11--|-(11)--------||--(11)-----||
|--------------|------11--------|-------------||-----------||
|-7-9--7-9-----|----------------|-------------||o---------o||
|--------------|----------------|-------------||-----------||


  E Q  E Q  Q    +Q    H.         +W            +W
|--------------|---------------|-------------|---------|
|--------------|---------------|-------------|---------|
|-----------9--|-(9)-----------|-------------|---------|
|--------------|------11-------|-(11)--------|-(11)----|
|-7-9--7-9-----|---------------|-------------|---------|
|--------------|---------------|-------------|---------|


                                    >
  E Q  E Q  Q    +Q    H     Q     +W            +W
|--------------|----------------|-------------|---------|
|--------------|----------------|-------------|---------|
|-----------9--|-(9)--------11--|-(11)--------|-(11)----|
|--------------|------11--------|-------------|---------|
|-7-9--7-9-----|----------------|-------------|---------|
|--------------|----------------|-------------|---------|


   +W            +W           Wx2
|-------------|-------------|------------|
|-------------|-------------|------------|
|-(11)--------|-(11)--------|------------|
|-------------|-------------|------------|
|-------------|-------------|------------|
|-------------|-------------|------------|


  <
  W          +W           +W           +W
|-9--------|-(9)--------|-(9)--------|-(9)----|
|----------|------------|------------|--------|
|----------|------------|------------|--------|
|----------|------------|------------|--------|
|----------|------------|------------|--------|
|----------|------------|------------|--------|


 Chorus
  Q=196
  F#5
  Gtr I
   Q   E  Q   E  E E     Q    E   Q   E  E E
|--------------------|-----------------------|
|-10p==7-10p==7-10p7-|-(10)--(7)-------------|
|--------------------|--11p===9--11p==9-11p9-|
|--------------------|-----------------------|
|--------------------|-----------------------|
|--------------------|-----------------------|
|
| Gtr II
|  E E E  E E E  E E     E E  E   E E E  E E
|--------------------|-----------------------|
|--------------------|-----------------------|
|--------------------|-----------------------|
|--4-4-4--4-4-4--4-4-|---4-4--4---4-4-4--4-4-|
|--4-4-4--4-4-4--4-4-|---4-4--4---4-4-4--4-4-|
|--2-2-2--2-2-2--2-2-|---2-2--2---2-2-2--2-2-|


  E  Q   E  Q   E  E    Q     E   Q   E  E E
|--------------------|------------------------|
|-7h10---7h10---7h10-|-(7)--(10)--------------|
|--------------------|-11p====9--11p==9-11p9--|
|--------------------|------------------------|
|--------------------|------------------------|
|--------------------|------------------------|
|
| E  E E E  E E E  E    E E   E   E E E  E E
|--------------------|------------------------|
|--------------------|------------------------|
|--------------------|------------------------|
|-4--4-4-4--4-4-4--4-|--4-4---4---4-4-4--4-4--|
|-4--4-4-4--4-4-4--4-|--4-4---4---4-4-4--4-4--|
|-2--2-2-2--2-2-2--2-|--2-2---2---2-2-2--2-2--|


  B5
  E  Q   E  Q   E  E    Q     E   Q   E  E E
|--------------------|-----------------------|
|-7h10---7h10---7h10-|-(7)--(10)-------------|
|--------------------|-11p====9--11p==9-11p9-|
|--------------------|-----------------------|
|--------------------|-----------------------|
|--------------------|-----------------------|
|
| E  E E E  E E E  E    E E   E   E E E  E E
|--------------------|-----------------------|
|--------------------|-----------------------|
|-4--4-4-4--4-4-4--4-|--4-4---4---4-4-4--4-4-|
|-4--4-4-4--4-4-4--4-|--4-4---4---4-4-4--4-4-|
|-2--2-2-2--2-2-2--2-|--2-2---2---2-2-2--2-2-|
|--------------------|-----------------------|


  A5
  E  Q   E  Q   E  E    Q     E   Q   E  E E
|--------------------|------------------------|
|-7h10---7h10---7h10-|-(7)--(10)--------------|
|--------------------|-11p====9--11p==9-11p9--|
|--------------------|------------------------|
|--------------------|------------------------|
|--------------------|------------------------|
|
| E  E E E  E E E  E    E E   E   E E E  E E
|--------------------|------------------------|
|--------------------|------------------------|
|-2--2-2-2--2-2-2--2-|--2-2---2---2-2-2--2-2--|
|-2--2-2-2--2-2-2--2-|--2-2---2---2-2-2--2-2--|
|-0--0-0-0--0-0-0--0-|--0-0---0---0-0-0--0-0--|
|--------------------|------------------------|


  F#5
   E  E E  E  E E  q      E E E  E Q   Q
|-12-10-0-12-10-0------|-------------------|
|-----------------10---|-10-7-0-10-7---7---|
|----------------------|-------------------|
|----------------------|-------------------|
|----------------------|-------------------|
|----------------------|-------------------|
|
|  E  E E  E  E E  E E    E E E  E E E E E
|----------------------|-------------------|
|----------------------|-------------------|
|----------------------|-------------------|
|--4--4-4--4--4-4--4-4-|--4-4-4--4-4-4-4-4-|
|--4--4-4--4--4-4--4-4-|--4-4-4--4-4-4-4-4-|
|--2--2-2--2--2-2--2-2-|--2-2-2--2-2-2-2-2-|


   E  E E  E  E E  q      E E E  E Q   Q
|-12-10-0-12-10-0------|--------------------|
|-----------------10---|-10-7-0-10-7---7----|
|----------------------|--------------------|
|----------------------|--------------------|
|----------------------|--------------------|
|----------------------|--------------------|
|
|  E  E E  E  E E  E E    E E E  E E E E E
|----------------------|--------------------|
|----------------------|--------------------|
|----------------------|--------------------|
|--4--4-4--4--4-4--4-4-|--4-4-4--4-4-4-4-4--|
|--4--4-4--4--4-4--4-4-|--4-4-4--4-4-4-4-4--|
|--2--2-2--2--2-2--2-2-|--2-2-2--2-2-2-2-2--|


  B5
   Q   E  Q   E q       Q    E   Q   E  E E
|-------------------|-----------------------|
|-10p==7-10p==7-7---|-(10)--(7)-------------|
|-------------------|--11p===9--11p==9-11p9-|
|-------------------|-----------------------|
|-------------------|-----------------------|
|-------------------|-----------------------|
|
|  E E E  E E E E E     E E  E   E E E  E E
|-------------------|-----------------------|
|-------------------|-----------------------|
|--4-4-4--4-4-4-4-4-|---4-4--4---4-4-4--4-4-|
|--4-4-4--4-4-4-4-4-|---4-4--4---4-4-4--4-4-|
|--2-2-2--2-2-2-2-2-|---2-2--2---2-2-2--2-2-|
|-------------------|-----------------------|


  A5
  E  Q   E  Q   q      Q     E   Q   E  E E
|-------------------|------------------------|
|-7h10---7h10---7---|-(7)--(10)--------------|
|-------------------|-11p====9--11p==9-11p9--|
|-------------------|------------------------|
|-------------------|------------------------|
|-------------------|------------------------|
|
| E  E E E  E E E E    E E   E   E E E  E E
|-------------------|------------------------|
|-------------------|------------------------|
|-2--2-2-2--2-2-2-2-|--2-2---2---2-2-2--2-2--|
|-2--2-2-2--2-2-2-2-|--2-2---2---2-2-2--2-2--|
|-0--0-0-0--0-0-0-0-|--0-0---0---0-0-0--0-0--|
|-------------------|------------------------|


  F#5
   Q   E  Q   E q       Q    E   Q   E  E E
|-------------------|-----------------------|
|-10p==7-10p==7-7---|-(10)--(7)-------------|
|-------------------|--11p===9--11p==9-11p9-|
|-------------------|-----------------------|
|-------------------|-----------------------|
|-------------------|-----------------------|
|
|  E E E  E E E E E     E E  E   E E E  E E
|-------------------|-----------------------|
|-------------------|-----------------------|
|-------------------|-----------------------|
|--4-4-4--4-4-4-4-4-|---4-4--4---4-4-4--4-4-|
|--4-4-4--4-4-4-4-4-|---4-4--4---4-4-4--4-4-|
|--2-2-2--2-2-2-2-2-|---2-2--2---2-2-2--2-2-|


  E  Q   E  Q   q      Q     E   Q   E  E E
|-------------------|------------------------|
|-7h10---7h10---7---|-(7)--(10)--------------|
|-------------------|-11p====9--11p==9-11p9--|
|-------------------|------------------------|
|-------------------|------------------------|
|-------------------|------------------------|
|
| E  E E E  E E E E    E E   E   E E E  E E
|-------------------|------------------------|
|-------------------|------------------------|
|-------------------|------------------------|
|-4--4-4-4--4-4-4-4-|--4-4---4---4-4-4--4-4--|
|-4--4-4-4--4-4-4-4-|--4-4---4---4-4-4--4-4--|
|-2--2-2-2--2-2-2-2-|--2-2---2---2-2-2--2-2--|


  B5
   E  E E  E  E E  q      E E E  E Q   Q
|-12-10-0-12-10-0------|-------------------|
|-----------------10---|-10-7-0-10-7---7---|
|----------------------|-------------------|
|----------------------|-------------------|
|----------------------|-------------------|
|----------------------|-------------------|
|
|  E  E E  E  E E  E E    E E E  E E E E E
|----------------------|-------------------|
|----------------------|-------------------|
|--4--4-4--4--4-4--4-4-|--4-4-4--4-4-4-4-4-|
|--4--4-4--4--4-4--4-4-|--4-4-4--4-4-4-4-4-|
|--2--2-2--2--2-2--2-2-|--2-2-2--2-2-2-2-2-|
|----------------------|-------------------|


  A5
   E  E E  E  E E  q      E E E  E Q   Q
|-12-10-0-12-10-0------|--------------------|
|-----------------10---|-10-7-0-10-7---7----|
|----------------------|--------------------|
|----------------------|--------------------|
|----------------------|--------------------|
|----------------------|--------------------|
|
|  E  E E  E  E E  E E    E E E  E E E E E
|----------------------|--------------------|
|----------------------|--------------------|
|--2--2-2--2--2-2--2-2-|--2-2-2--2-2-2-2-2--|
|--2--2-2--2--2-2--2-2-|--2-2-2--2-2-2-2-2--|
|--0--0-0--0--0-0--0-0-|--0-0-0--0-0-0-0-0--|
|----------------------|--------------------|


  F#5
   Q   E  Q   E q       Q    E   Q   E  E E
|-------------------|-----------------------|
|-10p==7-10p==7-7---|-(10)--(7)-------------|
|-------------------|--11p===9--11p==9-11p9-|
|-------------------|-----------------------|
|-------------------|-----------------------|
|-------------------|-----------------------|
|
|  E E E  E E E E E     E E  E   E E E  E E
|-------------------|-----------------------|
|-------------------|-----------------------|
|-------------------|-----------------------|
|--4-4-4--4-4-4-4-4-|---4-4--4---4-4-4--4-4-|
|--4-4-4--4-4-4-4-4-|---4-4--4---4-4-4--4-4-|
|--2-2-2--2-2-2-2-2-|---2-2--2---2-2-2--2-2-|


  E  Q   E  Q   q      Q     E   Q   E  E E
|-------------------|------------------------|
|-7h10---7h10---7---|-(7)--(10)--------------|
|-------------------|-11p====9--11p==9-11p9--|
|-------------------|------------------------|
|-------------------|------------------------|
|-------------------|------------------------|
|
| E  E E E  E E E E    E E   E   E E E  E E
|-------------------|------------------------|
|-------------------|------------------------|
|-------------------|------------------------|
|-4--4-4-4--4-4-4-4-|--4-4---4---4-4-4--4-4--|
|-4--4-4-4--4-4-4-4-|--4-4---4---4-4-4--4-4--|
|-2--2-2-2--2-2-2-2-|--2-2---2---2-2-2--2-2--|


  B5
   Q   E  Q   E q       Q    E   Q   E  E E
|-------------------|-----------------------|
|-10p==7-10p==7-7---|-(10)--(7)-------------|
|-------------------|--11p===9--11p==9-11p9-|
|-------------------|-----------------------|
|-------------------|-----------------------|
|-------------------|-----------------------|
|
|  E E E  E E E E E     E E  E   E E E  E E
|-------------------|-----------------------|
|-------------------|-----------------------|
|--4-4-4--4-4-4-4-4-|---4-4--4---4-4-4--4-4-|
|--4-4-4--4-4-4-4-4-|---4-4--4---4-4-4--4-4-|
|--2-2-2--2-2-2-2-2-|---2-2--2---2-2-2--2-2-|
|-------------------|-----------------------|


  A5
  E  Q   E  Q   q      Q     E   Q   E  E E
|-------------------|------------------------|
|-7h10---7h10---7---|-(7)--(10)--------------|
|-------------------|-11p====9--11p==9-11p9--|
|-------------------|------------------------|
|-------------------|------------------------|
|-------------------|------------------------|
|
| E  E E E  E E E E    E E   E   E E E  E E
|-------------------|------------------------|
|-------------------|------------------------|
|-2--2-2-2--2-2-2-2-|--2-2---2---2-2-2--2-2--|
|-2--2-2-2--2-2-2-2-|--2-2---2---2-2-2--2-2--|
|-0--0-0-0--0-0-0-0-|--0-0---0---0-0-0--0-0--|
|-------------------|------------------------|


   Bridge
    N.C.
    E  Q  E  Q  q     Q    E   Q  E  E E
||-----------------|---------------------|
||o-7h10--7h10--7--|---------------------|
||-----------------|-11p===9--11p=9-11p9-|
||-----------------|---------------------|
||o----------------|---------------------|
||-----------------|---------------------|
|
|   E  Q  E  Q  Q    +Q    H.
||-----------------|---------------------|
||o----------------|---------------------|
||--------------9--|-(9)-----------------|
||-----------------|------11-------------|
||o-7--9--7--9-----|---------------------|
||-----------------|---------------------|


  E  Q  E  Q  q     Q    E   Q  E  E E
|----------------|----------------------||
|-7h10--7h10--7--|---------------------o||
|----------------|-11p===9--11p=9-11p9--||
|----------------|----------------------||
|----------------|---------------------o||
|----------------|----------------------||
|
| E  Q  E  Q  Q    +Q    H.
|----------------|----------------------||
|----------------|---------------------o||
|-------------9--|-(9)------------------||
|----------------|------11--------------||
|-7--9--7--9-----|---------------------o||
|----------------|----------------------||


  F#5
  Gtrs I, II
  E E E E E E E E   E E E E E E E E   E E E E E E E E   E E E E E E E E
|-----------------|-----------------|-----------------|------------------|
|-----------------|-----------------|-----------------|------------------|
|-----------------|-----------------|-----------------|------------------|
|-4-4-4-4-4-4-4-4-|-4-4-4-4-4-4-4-4-|-4-4-4-4-4-4-4-4-|-4-4-4-4-4-4-4-4--|
|-4-4-4-4-4-4-4-4-|-4-4-4-4-4-4-4-4-|-4-4-4-4-4-4-4-4-|-4-4-4-4-4-4-4-4--|
|-2-2-2-2-2-2-2-2-|-2-2-2-2-2-2-2-2-|-2-2-2-2-2-2-2-2-|-2-2-2-2-2-2-2-2--|


  F#5
  Q  H.        W
|------------|------|
|------------|------|
|------------|------|
|-4----------|------|
|-4----------|------|
|-2----------|------|


--->  Chorus
      
--->  Verse
  
  Out-Chorus
  Q=196
  B5
  Gtr I
   E  E E  E  E E  q      E E E  E Q   Q
|-12-10-0-12-10-0------|-------------------|
|-----------------10---|-10-7-0-10-7---7---|
|----------------------|-------------------|
|----------------------|-------------------|
|----------------------|-------------------|
|----------------------|-------------------|
|
| Gtr II
|  E  E E  E  E E  E E    E E E  E E E E E
|----------------------|-------------------|
|----------------------|-------------------|
|--4--4-4--4--4-4--4-4-|--4-4-4--4-4-4-4-4-|
|--4--4-4--4--4-4--4-4-|--4-4-4--4-4-4-4-4-|
|--2--2-2--2--2-2--2-2-|--2-2-2--2-2-2-2-2-|
|----------------------|-------------------|


  A5
   E  E E  E  E E  q      E E E  E Q   Q
|-12-10-0-12-10-0------|--------------------|
|-----------------10---|-10-7-0-10-7---7----|
|----------------------|--------------------|
|----------------------|--------------------|
|----------------------|--------------------|
|----------------------|--------------------|
|
|  E  E E  E  E E  E E    E E E  E E E E E
|----------------------|--------------------|
|----------------------|--------------------|
|--2--2-2--2--2-2--2-2-|--2-2-2--2-2-2-2-2--|
|--2--2-2--2--2-2--2-2-|--2-2-2--2-2-2-2-2--|
|--0--0-0--0--0-0--0-0-|--0-0-0--0-0-0-0-0--|
|----------------------|--------------------|


  F#5
   Q   E  Q   E q       Q    E   Q   E  E E
|-------------------|-----------------------|
|-10p==7-10p==7-7---|-(10)--(7)-------------|
|-------------------|--11p===9--11p==9-11p9-|
|-------------------|-----------------------|
|-------------------|-----------------------|
|-------------------|-----------------------|
|
|  E E E  E E E E E     E E  E   E E E  E E
|-------------------|-----------------------|
|-------------------|-----------------------|
|-------------------|-----------------------|
|--4-4-4--4-4-4-4-4-|---4-4--4---4-4-4--4-4-|
|--4-4-4--4-4-4-4-4-|---4-4--4---4-4-4--4-4-|
|--2-2-2--2-2-2-2-2-|---2-2--2---2-2-2--2-2-|


  E  Q   E  Q   q      Q     E   Q   E  E E
|-------------------|------------------------|
|-7h10---7h10---7---|-(7)--(10)--------------|
|-------------------|-11p====9--11p==9-11p9--|
|-------------------|------------------------|
|-------------------|------------------------|
|-------------------|------------------------|
|
| E  E E E  E E E E    E E   E   E E E  E E
|-------------------|------------------------|
|-------------------|------------------------|
|-------------------|------------------------|
|-4--4-4-4--4-4-4-4-|--4-4---4---4-4-4--4-4--|
|-4--4-4-4--4-4-4-4-|--4-4---4---4-4-4--4-4--|
|-2--2-2-2--2-2-2-2-|--2-2---2---2-2-2--2-2--|


  B5
   E  E E  E  E E  q      E E E  E Q   Q
|-12-10-0-12-10-0------|-------------------|
|-----------------10---|-10-7-0-10-7---7---|
|----------------------|-------------------|
|----------------------|-------------------|
|----------------------|-------------------|
|----------------------|-------------------|
|
|  E  E E  E  E E  E E    E E E  E E E E E
|----------------------|-------------------|
|----------------------|-------------------|
|--4--4-4--4--4-4--4-4-|--4-4-4--4-4-4-4-4-|
|--4--4-4--4--4-4--4-4-|--4-4-4--4-4-4-4-4-|
|--2--2-2--2--2-2--2-2-|--2-2-2--2-2-2-2-2-|
|----------------------|-------------------|


  A5
   E  E E  E  E E  q      E E E  E Q   Q
|-12-10-0-12-10-0------|--------------------|
|-----------------10---|-10-7-0-10-7---7----|
|----------------------|--------------------|
|----------------------|--------------------|
|----------------------|--------------------|
|----------------------|--------------------|
|
|  E  E E  E  E E  E E    E E E  E E E E E
|----------------------|--------------------|
|----------------------|--------------------|
|--2--2-2--2--2-2--2-2-|--2-2-2--2-2-2-2-2--|
|--2--2-2--2--2-2--2-2-|--2-2-2--2-2-2-2-2--|
|--0--0-0--0--0-0--0-0-|--0-0-0--0-0-0-0-0--|
|----------------------|--------------------|


  F#5
  Gtrs I
  E E E E E E E E   E E E E E E E E   E E E E E E E E   E E E E E E E E
|-----------------|-----------------|-----------------|------------------|
|-----------------|-----------------|-----------------|------------------|
|-----------------|-----------------|-----------------|------------------|
|-4-4-4-4-4-4-4-4-|-4-4-4-4-4-4-4-4-|-4-4-4-4-4-4-4-4-|-4-4-4-4-4-4-4-4--|
|-4-4-4-4-4-4-4-4-|-4-4-4-4-4-4-4-4-|-4-4-4-4-4-4-4-4-|-4-4-4-4-4-4-4-4--|
|-2-2-2-2-2-2-2-2-|-2-2-2-2-2-2-2-2-|-2-2-2-2-2-2-2-2-|-2-2-2-2-2-2-2-2--|
|
| Gtr II
| E E E E E E E E   E E E E E E E E   E E E E E E E E   E E E E E E E E
|-----------------|-----------------|-----------------|------------------|
|-7-7-7-7-7-7-7-7-|-7-7-7-7-7-7-7-7-|-7-7-7-7-7-7-7-7-|-7-7-7-7-7-7-7-7--|
|-----------------|-----------------|-----------------|------------------|
|-----------------|-----------------|-----------------|------------------|
|-----------------|-----------------|-----------------|------------------|
|-----------------|-----------------|-----------------|------------------|


  E H..         W
|-------------|------*|
|-------------|------*|
|-------------|------*|
|-4-----------|------*|
|-4-----------|------*|
|-2-----------|------*|
|
| E H..         W
|-------------|------*|
|-7-----------|------*|
|-------------|------*|
|-------------|------*|
|-------------|------*|
|-------------|------*|
Tap to rate this tab
# A B C D E F G H I J K L M N O P Q R S T U V W X Y Z