Song name
# A B C D E F G H I J K L M N O P Q R S T U V W X Y Z

Alexisonfire - Happiness By The Killowatt tab

tabbed by:mtich  e mail mitch_128@hotmail.com

*:muted
~:let ring 

|----------------------------------------------|
|----------------------------------------------|
|---4-4-4-4---3-3-3-3--6-6-6-6--4-4-4-4--x4----|
|---*-*-*-*---*-*-*-*--*-*-*-*--*-*-*-*--------|
|---2-2-2-2---1-1-1-1--4-4-4-4--2-2-2-2--------|
|----------------------------------------------|

|-----------------------------------|
|-----------------------------------|
|-----------------------------------|
|---6~~~~~~~~~~~-2~~~~~~~~~~~-------|
|---6~~~~~~~~~~~-2~~~~~~~~~~~-------|
|---6~~~~~~~~~~~-2~~~~~~~~~~~-------|


verse 
|---------------------------------------------| X4
|--0-4-4-4-4-0-5--x4--0-4-4-4-4-0-7-0-5-0-----|
|---------------------------------------------|
|---------------------------------------------|
|---------------------------------------------|
|---------------------------------------------|
 courus 
|-------------------------------------------------------------------------|
|-------------------------------------------------------------------------|
|-------------------------------------------------------------------------|
|---6-6-6-6---6-6-6-6---6-6-6-6---6-6-6-6--6---2-2-2-2--2-2-2-2--2-2-2-2--|
|---6-6-6-6---6-6-6-6---6-6-6-6---6-6-6-6--6---2-2-2-2--2-2-2-2--2-2-2-2--|
|---6-6-6-6---6-6-6-6---6-6-6-6---6-6-6-6--6---2-2-2-2--2-2-2-2--2-2-2-2--|

the bridge is the same as the courus just muted and a little differnt beat.
Tap to rate this tab
# A B C D E F G H I J K L M N O P Q R S T U V W X Y Z