Song name
# A B C D E F G H I J K L M N O P Q R S T U V W X Y Z

Alexisonfire - Mailbox Arson tab

-------------------------------------------------------------------------------
			     Mailbox Arson - Alexisonfire
-------------------------------------------------------------------------------
Tabbed by:Dylan Marin
Email:mp5hkm@hotmail.com

Tuning: Db-Ab-Db-Gb-Bb-Eb


[Intro]

(Guitar 1)
e|-----------/////---------|
B|-------------//////------|
G|----13----------///////--|
D|----11-------------------|
A|----11----^^^^^^^^^^^^---|
E|----11----(pick slide)---|

(Guitar2)
e|----------|
B|----------|
G|----6-----|
D|----6-----|
A|----4-----|
E|----------|

[Verse]

(Guitar 1)

e|--(x4)---------------------------------------------------------------------|
B|---------------------------------------------------------------------------|
G|--6666--4-4/9-99-4/6-6-----------------------------------------------------|
D|--xxxx--x-x/x-xx-x/x-x-----------------------------------------------------|
A|--4444--2-2/7-77-2/4-4-----------------------------------------------------|
E|---------------------------------------------------------------------------|

(Guitar 2)

e|----(play-once-only)----|--(x2)-------------------|---(x1)-----------------|
B|------------------------|-------------------------|------------------------|
G|--6666--4-4/9-99-4/6-6--|--4/6-66-4-4/9-99-4/6-6--|---9/11-11-11-9-6\------|
D|--xxxx--x-x/x-xx-x/x-x--|--x/x-xx-x-x/x-xx-x/x-x--|---x/x--x--x--x-x\------|
A|--4444--2-2/7-77-2/4-4--|--2/4-44-2-2/7-77-2/4-4--|---7/9--9--9--7-4\------|
E|------------------------|-------------------------|------------------------|

(Guitar 1)

e|--(x4)-----------------|----------------------------------------------------|
B|-----------------------|----------------------------------------------------|
G|--xxxx-4-4/9-99-4/6-6--|----------------------------------------------------|
D|--xxxx-x-x/x-xx-x/x-x--|----------------------------------------------------|
A|--xxxx-2-2/7-77-2/4-4--|----------------------------------------------------|
E|-----------------------|----------------------------------------------------|

(Guitar 2)

e|-------------------(play-once-only)------------------|-----------(play-three-times)--------------------|
B|-----------------------------------------------------|-------------------------------------------------|
G|---13p11----11---------------------------------------|--11h13p11-----------------14-11----11-----------|
D|---------14----14-13-13~--14-13-11-14-13-11----------|-----------13-14-13-11-11~-------14----14-13-11--|
A|--------------------------------------------14-------|-------------------------------------------------|
E|-----------------------------------------------------|-------------------------------------------------|

(Guitar 1)

e|--(x4)-----------------|--(x1)----------------------------------------------|
B|-----------------------|----------------------------------------------------|
G|--xxxx-4-4/9-99-4/6-6--|---xxxx-4-4-----------------------------------------|
D|--xxxx-x-x/x-xx-x/x-x--|---xxxx-x-x-----------------------------------------|
A|--xxxx-2-2/7-77-2/4-4--|---xxxx-2-2-----------------------------------------|
E|-----------------------|----------------------------------------------------|

(Guitar 2)

e|-------------------(play-once-only)------------------|-----------(play-two-this-once)---------------------------------------------|
B|-----------------------------------------------------|-------------------------------------------------|--------------------------|
G|---13p11----11---------------------------------------|--11h13p11-----------------14-11----11-----------|--11h13p11----------------|
D|---------14----14-13-13~--14-13-11-14-13-11----------|-----------13-14-13-11-11~-------14----14-13-11--|-----------13-14-13-11-11-|
A|--------------------------------------------14-------|-------------------------------------------------|--------------------------|
E|-----------------------------------------------------|-------------------------------------------------|--------------------------|

[Pre Chorus]

(Guitar 1)

e|-(x16)--------(x16)-------(x16)---------(x8)--------(x8)-------------------|
B|---------------------------------------------------------------------------|
G|---13-----------9----------------------------------------------------------|
D|---11-----------7-----------4------------3-----------2---------------------|
A|---11-----------7-----------4------------3-----------2---------------------|
E|---11-----------7-----------4------------3-----------2---------------------|

(Guitar 2)

e|--(x16)-------(x16)-------(x16)---------(x8)--------(x8)-------------------|
B|---------------------------------------------------------------------------|
G|----6-----------2----------------------------------------------------------|
D|----6-----------2-----------4------------3------------2--------------------|
A|----4-----------0-----------4------------3------------2--------------------|
E|----------------------------4------------3------------2--------------------|

[Chorus]

(Guitar 1)

e|----(play three times)---------------------------------------------------|
B|----------------/121212--------------------------------------------------|
G|---999999999999-------------99999999-8-9-8-9-8-99------------------------|
D|-------------------------------------------------------------------------|
A|-------------------------------------------------------------------------|
E|-------------------------------------------------------------------------|

(Guitar 2)

e|--(x16)-------(x16)-------(x16)---------(x8)--------(x8)-------------------|
B|---------------------------------------------------------------------------|
G|----6-----------2----------------------------------------------------------|
D|----6-----------2-----------4------------3------------2--------------------|
A|----4-----------0-----------4------------3------------2--------------------|
E|----------------------------4------------3------------2--------------------|

(Guitar 1)

e|----(play three times)----------------------------------------------------|
B|----------------/121212---------------------------------------------------|
G|---999999999999-------------99999999-8-9-8-9-8-99-------------------------|
D|--------------------------------------------------------------------------|
A|--------------------------------------------------------------------------|
E|--------------------------------------------------------------------------|

(Guitar 2)

e|--(x16)-------(x16)-------(x16)---------(x8)--------(x8)-------------------|
B|---------------------------------------------------------------------------|
G|----6-----------2----------------------------------------------------------|
D|----6-----------2-----------4------------3------------2--------------------|
A|----4-----------0-----------4------------3------------2--------------------|
E|----------------------------4------------3------------2--------------------|

(Guitar 1)

e|--(x4)---------------------------------------------------------------------|
B|---------------------------------------------------------------------------|
G|---6666--4-4/9-99-4/6-6----------------------------------------------------|
D|---xxxx--x-x/x-xx-x/x-x----------------------------------------------------|
A|---4444--2-2/7-77-2/4-4----------------------------------------------------|
E|---------------------------------------------------------------------------|

(Guitar 2)

e|----------|
B|----------|
G|---6------|
D|---6------|
A|---4------|
E|----------|

(Guitar 1)

e|--(x4)---------------------------------------------------------------------|
B|---------------------------------------------------------------------------|
G|---6666--4-4/9-99-4/6-6----------------------------------------------------|
D|---xxxx--x-x/x-xx-x/x-x----------------------------------------------------|
A|---4444--2-2/7-77-2/4-4----------------------------------------------------|
E|---------------------------------------------------------------------------|

(Guitar 2)

e|----(x4)-------------------------------------------------------------------|
B|---------------------------------------------------------------------------|
G|-----13-------11-----------------13-------11-------------------------------|
D|--------14-13----14-11----11--------14-13----14-13-11----------------------|
A|-----------------------14--------------------------------------------------|
E|---------------------------------------------------------------------------|

(Guitar 1)

e|--(x3)--------------------------|---(x1)-----------------------------------|
B|--------------------------------|------------------------------------------|
G|---6666--4-4/9-99-4/6-6---------|---6666-4-4~------------------------------|
D|---xxxx--x-x/x-xx-x/x-x---------|---xxxx-x-x~------------------------------|
A|---4444--2-2/7-77-2/4-4---------|---4444-2-2~------------------------------|
E|--------------------------------|------------------------------------------|

(Guitar 2)

e|----16----14-------16----14-----|--16----14-------16~--------------------|
B|-------16----16-14----14----14--|-----16----16-14------------------------|
G|--------------------------------|----------------------------------------|
D|-------(play this 3 times)------|----(Then this once)--------------------|
A|--------------------------------|----------------------------------------|
E|--------------------------------|----------------------------------------|

[Interlude]

(Guitar 1)
                 (play two times)
e|---------------------------------------------------------------------------|
B|---------------------------------------------------------------------------|
G|-9999999-8-88888888------111111111111111111-9--9-9-9-9-9-9-9-9-9-----------|
D|-----------99999999----------------------------111111111111111111----------|
A|----(x2)----------------------------------(x2)-----------------------------|
E|---------------------------------------------------------------------------|

(Guitar 2)

e|--(x2)---------------------------------------------------------------------|
B|---------------------------------------------------------------------------|
G|---9-8-----9-8-----11-9-----11-9-------------------------------------------|
D|-------9~------9~-------11~-----11~----------------------------------------|
A|---------------------------------------------------------------------------|
E|---------------------------------------------------------------------------|

(Guitar 1)
             (play two times)
e|---------------------------------------------------------------------------|
B|---12-----12---------------------------------------------------------------|
G|---16-----13---------------------------------------------------------------|
D|---------------------------------------------------------------------------|
A|-(x32)--(x32)--------------------------------------------------------------|
E|---------------------------------------------------------------------------|

(Guitar 2)

e|--(x2)---------------------------------------------------------------------|
B|---------------------------------------------------------------------------|
G|---9-8-----9-8-----11-9-----11-9-------------------------------------------|
D|-------9~------9~-------11~-----11~----------------------------------------|
A|---------------------------------------------------------------------------|
E|---------------------------------------------------------------------------|

(Guitar 1)


e|-(x2)----------------|-(x2)------------------------------------------------------|
B|---------------------|-----------------------------------------------------------|
G|-99999999-8-9-8------|-----------------------------------------------------------|
D|---------------99999-|-1111111111111111-9-11-9-111111-1111111111111111-9-11-9-11-|
A|---------------------|-----------------------------------------------------------|
E|---------------------|-----------------------------------------------------------|

(Guitar 2)

e|-(x2)----------------|---(x2)-----------------------------------------------|
B|---------------------|------------------------------------------------------|
G|-9999999-8-----------|---111111111111111111-9-------------------------------|
D|-----------99999999--|-----------------------111111111111111111-------------|
A|---------------------|------------------------------------------------------|
E|---------------------|------------------------------------------------------|

[Pre Chorus]

(Guitar 1)

e|-(x16)--------(x16)-------(x16)---------(x8)--------(x8)-------------------|
B|---------------------------------------------------------------------------|
G|---13-----------9----------------------------------------------------------|
D|---11-----------7-----------4------------3-----------2---------------------|
A|---11-----------7-----------4------------3-----------2---------------------|
E|---11-----------7-----------4------------3-----------2---------------------|

(Guitar 2)

e|--(x16)-------(x16)-------(x16)---------(x8)--------(x8)-------------------|
B|---------------------------------------------------------------------------|
G|----6-----------2----------------------------------------------------------|
D|----6-----------2-----------4------------3------------2--------------------|
A|----4-----------0-----------4------------3------------2--------------------|
E|----------------------------4------------3------------2--------------------|


[Chorus]

(Guitar 1)

e|----(play three times)----------------------------------------------------|
B|----------------/121212---------------------------------------------------|
G|---999999999999-------------99999999-8-9-8-9-8-99-------------------------|
D|--------------------------------------------------------------------------|
A|--------------------------------------------------------------------------|
E|--------------------------------------------------------------------------|

(Guitar 2)

e|--(x16)-------(x16)-------(x16)---------(x8)--------(x8)-------------------|
B|---------------------------------------------------------------------------|
G|----6-----------2----------------------------------------------------------|
D|----6-----------2-----------4------------3------------2--------------------|
A|----4-----------0-----------4------------3------------2--------------------|
E|----------------------------4------------3------------2--------------------|

(Guitar 1)

e|----(play three times)----------------------------------------------------|
B|----------------/121212---------------------------------------------------|
G|---999999999999-------------99999999-8-9-8-9-8-99-------------------------|
D|--------------------------------------------------------------------------|
A|--------------------------------------------------------------------------|
E|--------------------------------------------------------------------------|

(Guitar 2)

e|--(x16)-------(x16)-------(x16)---------(x8)--------(x8)-------------------|
B|---------------------------------------------------------------------------|
G|----6-----------2----------------------------------------------------------|
D|----6-----------2-----------4------------3------------2--------------------|
A|----4-----------0-----------4------------3------------2--------------------|
E|----------------------------4------------3------------2--------------------|

[Outro]

(Guitar 1)

e|----0--0--0--0--0~---------------------------------------------------------|
B|----0--0--0--0--0~---------------------------------------------------------|
G|----8--8--8--8--8~---------------------------------------------------------|
D|---------------------------------------------------------------------------|
A|---------------------------------------------------------------------------|
E|---------------------------------------------------------------------------|

(Guitar 2)

e|---------------------------------------------------------------------------|
B|---------------------------------------------------------------------------|
G|---------------------------------------------------------------------------|
D|----11--11--11--11--11~----------------------------------------------------|
A|----11--11--11--11--11~----------------------------------------------------|
E|----11--11--11--11--11~----------------------------------------------------|


| /  slide up
| \  slide down
| h  hammer-on
| p  pull-off
| ~  vibrato
| +  harmonic
| x  Mute note
===============================================================================
Tap to rate this tab
 
# A B C D E F G H I J K L M N O P Q R S T U V W X Y Z