Song name
# A B C D E F G H I J K L M N O P Q R S T U V W X Y Z

Alexisonfire - Keep It On Wax tab

----------------------------------------------------------------------------
                          Keep it on Wax - ALEXISONFIRE
----------------------------------------------------------------------------
Tabbed by: Robbie M
Email:harmonyhavendeadbeats@hotmail.com

Tuning: Drop D



Intro- 0:00 - 0:23(rhythm)
e|------------------------------------------|
B|------------------------------------------|
G|---10-10-10-11-10-10-10-11-10-10-10-11-10-|
D|---8--8--8--8--8--8--8--8--8--8--8--8--8--|
A|---8--8--8--8--8--8--8--8--8--8--8--8--8--|
E|---8--8--8--8--8--8--8--8--8--8--8--8--8--|


Intro Continued(Lead)- 0:03 - 0:23
e|------------------------------------------------------------------|
B|------------------------------------------------------------------|
G|------------------------------------------------------------------|
D|------------------------------------------------------------------|
A|--------4-6-8-8/9-8---------4-6--11-9-8-9-8-6---11-9-8-9-8--------|
E|-6h8-8---------------6h-8-8---------------------------------8-11--|

Verse- 0:23 - 0:46 
e|------------------------------------------------------------------|(x2)
B|------------------------------------------------------------------|
G|--------------------------------10--------------------------------|
D|--8---8-8--8-8--8-8-8-8-8--8----8--(x32)--------------------------|
A|--8---8-8--8-8--8-8-9-9-10-10---8---------------------------------|
E|--8---8-8--8-8--8-8-8-8-8--8----8---------------------------------|

Pre Course- 0:46 - 1:07                                             (x2)
e|-----------------------------------------------------------------------|
B|-----------------------------------------------------------------------|
G|--------6-8-10-10/11-10--------6-8-13-11-10-11-10-8---13-11-10-11-10---|
D|-6-h8-8-----------------6-h8-8---------------------------------------8-|
A|-----------------------------------------------------------------------|
E|-----------------------------------------------------------------------|

-bass thing- 1:07 - 1:12 

Course - 1:12 - 1:37
e|------------------------------------------------------------|
B|------------------------------------------------------------|
G|------------------------------------------------------------|
D|--8--(x32)--1-1-1-1-1-1-1-1-4-4-4-4-6-6-6-6-----------------|
A|--8---------1-1-1-1-1-1-1-1-4-4-4-4-6-6-6-6-----------------|
E|--8---------1-1-1-1-1-1-1-1-4-4-4-4-6-6-6-6-----------------|

             KEEP    IT    ON      WAX
e|------------------------------------------------------------|
B|------------------------------------------------------------|
G|------------10-----10----10-------10------------------------|
D|------------8------8-----8--------8-------------------------|
A|------------8------8-----8--------8-------------------------|
E|------------8------8-----8--------8-------------------------|

This Again- 1:38 - 2:00                                   (x2)
e|------------------------------------------------------------------|
B|------------------------------------------------------------------|
G|------------------------------------------------------------------|
D|------------------------------------------------------------------|
A|--------4-6-8-8/9-8---------4-6--11-9-8-9-8-6---11-9-8-9-8--------|
E|-6h8-8---------------6h-8-8---------------------------------8-11--|

Then This- 2:00 - 2:20                                  (x2)
e|----------------------------------------------------
B|---6h7-6-----6h7-6-----6h7-6------6h7-6-------------
G|---------6---------6---------6----------6-----------
D|-8---------8---------8---------8----------8---------
A|-8--------------------------------------------------
E|-8--------------------------------------------------
Continued ....
e|----------------------------------------------------|
B|----------------------------------------------------|
G|--8-8-8-8-8-8-8-8---11-11-11-11-10-10-10-10---------|
D|--x-x-x-x-x-x-x-x---x--x--x--x--x--x--x--x----------|
A|--6-6-6-6-6-6-6-6---9--9--9--9--8--8--8--8----------|
E|----------------------------------------------------|

    I ... I  GUESSS THE ONLY THING CHEAP TO YOU IS YOUR FRIENDS 
           [2:20 - 2:43]                                            (x4)
e|------------------------------------------------------------|
B|------------------------------------------------------------|
G|------------------------------------------------------------|
D|-8------8--8-------8---8---8--8---8--8---8----8-------------|
A|-8------8--8-------8---8---8--8---8--8---8----8-------------|
E|-8------8--8-------8---8---8--8---8--8---8----8-------------|

Then This- 2:43 - 2:53 
e|-----------------------------------------------------------|
B|-----------------------------------------------------------|
G|--10-------8--------10------11------6------5---------------|
D|--8--(x16)-6-(x16)--8--(x8)-9--(x8)-4-(x8)-3-(x8)----------|
A|--8--------6--------8-------9-------4------3---------------|
E|--8--------6--------8-------9-------4------3---------------|

Course- 2:53 -3:15                                             (x2)
e|------------------------------------------------------------|
B|------------------------------------------------------------|
G|------------------------------------------------------------|
D|--8--(x32)--1-1-1-1-1-1-1-1-4-4-4-4-6-6-6-6-----------------|
A|--8---------1-1-1-1-1-1-1-1-4-4-4-4-6-6-6-6-----------------|
E|--8---------1-1-1-1-1-1-1-1-4-4-4-4-6-6-6-6-----------------|

Outro- 3:15- 3:48
e|------------------------------------------------------------|
B|------------------------------------------------------------|
G|------------------------------------------------------------|
D|--8--(x32)--1-1-1-1-1-1-1-1-4-4-4-4-6-6-6-6-----------------|
A|--8---------1-1-1-1-1-1-1-1-4-4-4-4-6-6-6-6-----------------|
E|--8---------1-1-1-1-1-1-1-1-4-4-4-4-6-6-6-6-----------------|

End on
e|-----|
B|-----|
G|-----|
D|-8---|
A|-8---|
E|-8---|


Any questions, or parts that arent correct, please email me.
Tap to rate this tab
# A B C D E F G H I J K L M N O P Q R S T U V W X Y Z