Guitaretab - guitar tabs
Song name
# A B C D E F G H I J K L M N O P Q R S T U V W X Y Z

Alexisonfire - That Girl Possessed tab

Gtr I (Db Ab Db Gb Bb Eb) - 'Untitled'
Gtr II (Db Ab Db Gb Bb Eb) - 'Untitled'
Gtr III (Db Ab Db Gb Bb Eb) - 'Untitled'
Gtr IV (Db Ab Db Gb Bb Eb) - 'Untitled'


 Intro
  Q=103
  N.C.
 4/4
  Gtrs III, IV
   W           +H      +H        W           +H      +H
|-13--------|-(13)----(13)s===|=10--------|-(10)----(10)s====|
|-----------|-----------------|-----------|------------------|
|-----------|-----------------|-----------|------------------|
|-----------|-----------------|-----------|------------------|
|-----------|-----------------|-----------|------------------|
|-----------|-----------------|-----------|------------------|


  W          +W
|-8--------|-(8)----|
|----------|--------|
|----------|--------|
|----------|--------|
|----------|--------|
|----------|--------|


 Verse
  C#5  B5C#5                           B5C#5
  Gtr I
   Q   S  E  Q    S  S  S  S  S    Q   S  E  Q    S  S  S  S  S
|-------------------------------|-------------------------------|
|-------------------------------|-------------------------------|
|-13\----13-13\--13-13-13-13-13-|-13\----13-13\--13-13-13-13-13-|
|-11\--9-11-11\--11-11-11-11-11-|-11\--9-11-11\--11-11-11-11-11-|
|-11\--9-11-11\--11-11-11-11-11-|-11\--9-11-11\--11-11-11-11-11-|
|-11\--9-11-11\--11-11-11-11-11-|-11\--9-11-11\--11-11-11-11-11-|
|
| Gtr II
|  Q   S  E  Q    S  S  S  S  S    Q   S  E  Q    S  S  S  S  S
|-------------------------------|-------------------------------|
|-------------------------------|-------------------------------|
|-------------------------------|-------------------------------|
|-11\--9-11-11\--11-11-11-11-11-|-11\--9-11-11\--11-11-11-11-11-|
|-11\--9-11-11\--11-11-11-11-11-|-11\--9-11-11\--11-11-11-11-11-|
|-11\--9-11-11\--11-11-11-11-11-|-11\--9-11-11\--11-11-11-11-11-|
|
| Gtrs III, IV
|  >
| +W                              +W
|-(8)---------------------------|-(8)---------------------------|
|-------------------------------|-------------------------------|
|-------------------------------|-------------------------------|
|-------------------------------|-------------------------------|
|-------------------------------|-------------------------------|
|-------------------------------|-------------------------------|


       B5C#5                           B5C#5
   Q   S  E  Q    S  S  S  S  S    Q   S  E  Q    S  S  S  S  S
|-------------------------------|-------------------------------|
|-------------------------------|-------------------------------|
|-13\----13-13\--13-13-13-13-13-|-13\----13-13\--13-13-13-13-13-|
|-11\--9-11-11\--11-11-11-11-11-|-11\--9-11-11\--11-11-11-11-11-|
|-11\--9-11-11\--11-11-11-11-11-|-11\--9-11-11\--11-11-11-11-11-|
|-11\--9-11-11\--11-11-11-11-11-|-11\--9-11-11\--11-11-11-11-11-|
|
|  Q   S  E  Q    S  S  S  S  S    Q   S  E  Q    S  S  S  S  S
|-------------------------------|-------------------------------|
|-------------------------------|-------------------------------|
|-------------------------------|-------------------------------|
|-11\--9-11-11\--11-11-11-11-11-|-11\--9-11-11\--11-11-11-11-11-|
|-11\--9-11-11\--11-11-11-11-11-|-11\--9-11-11\--11-11-11-11-11-|
|-11\--9-11-11\--11-11-11-11-11-|-11\--9-11-11\--11-11-11-11-11-|


  A5                         E5          F#5
  Gtr I
   E S E S E S E S S S S S    E  S E S S E E S S S  S  S
|--------------------------|-----------------------------|
|--------------------------|-----------------------------|
|--------------------------|-----------------------------|
|--7-7-7-7-7-7-7-7-7-7-7-7-|--2--2-2-2-2-4-4-4-4-4--4--4-|
|--7-7-7-7-7-7-7-7-7-7-7-7-|--2--2-2-2-2-4-4-4-4-4--4--4-|
|--7-7-7-7-7-7-7-7-7-7-7-7-|--2--2-2-2-2-4-4-4-4-4--4--4-|
|
| Gtr II
|  E S E S E S E S S S S S    E  S E S S E E S S S  S  S
|--------------------------|-----------------------------|
|--------------------------|-----------------------------|
|--------------------------|-----------------------------|
|--7-7-7-7-7-7-7-7-7-7-7-7-|--2--2-2-2-2-4-4-4-4-4--4--4-|
|--7-7-7-7-7-7-7-7-7-7-7-7-|--2--2-2-2-2-4-4-4-4-4--4--4-|
|--7-7-7-7-7-7-7-7-7-7-7-7-|--2--2-2-2-2-4-4-4-4-4--4--4-|
|
| Gtrs III, IV
|  W                          Q.       H           +E
|--------------------------|-----------------------------|
|--------------------------|-----------------------------|
|--------------------------|--9--------8-----------(8)---|
|-/9-----------------------|-(9)-------------------------|
|--------------------------|-----------------------------|
|--------------------------|-----------------------------|


  C#5  B5C#5                           B5C#5
   Q   S  E  Q    S  S  S  S  S    Q   S  E  Q    S  S  S  S  S
|-------------------------------|-------------------------------|
|-------------------------------|-------------------------------|
|-13\----13-13\--13-13-13-13-13-|-13\----13-13\--13-13-13-13-13-|
|-11\--9-11-11\--11-11-11-11-11-|-11\--9-11-11\--11-11-11-11-11-|
|-11\--9-11-11\--11-11-11-11-11-|-11\--9-11-11\--11-11-11-11-11-|
|-11\--9-11-11\--11-11-11-11-11-|-11\--9-11-11\--11-11-11-11-11-|
|
|  Q   S  E  Q    S  S  S  S  S    Q   S  E  Q    S  S  S  S  S
|-------------------------------|-------------------------------|
|-------------------------------|-------------------------------|
|-------------------------------|-------------------------------|
|-11\--9-11-11\--11-11-11-11-11-|-11\--9-11-11\--11-11-11-11-11-|
|-11\--9-11-11\--11-11-11-11-11-|-11\--9-11-11\--11-11-11-11-11-|
|-11\--9-11-11\--11-11-11-11-11-|-11\--9-11-11\--11-11-11-11-11-|
|
|  >
|  W                              +W
|-------------------------------|-------------------------------|
|-------------------------------|-------------------------------|
|--9----------------------------|-(9)---------------------------|
|-------------------------------|-------------------------------|
|-------------------------------|-------------------------------|
|-------------------------------|-------------------------------|


  C#5  B5C#5                           B5C#5
   Q   S  E  Q    S  S  S  S  S    Q   S  E  Q    S  S  S  S  S
|-------------------------------|-------------------------------|
|-------------------------------|-------------------------------|
|-13\----13-13\--13-13-13-13-13-|-13\----13-13\--13-13-13-13-13-|
|-11\--9-11-11\--11-11-11-11-11-|-11\--9-11-11\--11-11-11-11-11-|
|-11\--9-11-11\--11-11-11-11-11-|-11\--9-11-11\--11-11-11-11-11-|
|-11\--9-11-11\--11-11-11-11-11-|-11\--9-11-11\--11-11-11-11-11-|
|
|  Q   S  E  Q    S  S  S  S  S    Q   S  E  Q    S  S  S  S  S
|-------------------------------|-------------------------------|
|-------------------------------|-------------------------------|
|-------------------------------|-------------------------------|
|-11\--9-11-11\--11-11-11-11-11-|-11\--9-11-11\--11-11-11-11-11-|
|-11\--9-11-11\--11-11-11-11-11-|-11\--9-11-11\--11-11-11-11-11-|
|-11\--9-11-11\--11-11-11-11-11-|-11\--9-11-11\--11-11-11-11-11-|


  A5                        E5
                       2/8
  Gtr I
  E S E S E S E S E E    E  E
|---------------------|--------|
|---------------------|--------|
|---------------------|--------|
|-7-7-7-7-7-7-7-7-7-7-|--7--2\-|
|-7-7-7-7-7-7-7-7-7-7-|--7--2\-|
|-7-7-7-7-7-7-7-7-7-7-|--7--2\-|
|
| Gtr II
| E S E S E S E S E E    E  E
|---------------------|--------|
|---------------------|--------|
|---------------------|--------|
|-7-7-7-7-7-7-7-7-7-7-|--7--2\-|
|-7-7-7-7-7-7-7-7-7-7-|--7--2\-|
|-7-7-7-7-7-7-7-7-7-7-|--7--2\-|
|
| Gtrs III, IV
| E S E S H         E   +Q
|---------------------|--------|
|---------------------|--------|
|-9-9-9-9-8-----------|--------|
|-------------------9-|-(9)----|
|---------------------|--------|
|---------------------|--------|


  C#5  B5C#5                           B5C#5
 4/4
   Q   S  E  Q    S  S  S  S  S    Q   S  E  Q    S  S  S  S  S
|-------------------------------|-------------------------------|
|-------------------------------|-------------------------------|
|-13\----13-13\--13-13-13-13-13-|-13\----13-13\--13-13-13-13-13-|
|-11\--9-11-11\--11-11-11-11-11-|-11\--9-11-11\--11-11-11-11-11-|
|-11\--9-11-11\--11-11-11-11-11-|-11\--9-11-11\--11-11-11-11-11-|
|-11\--9-11-11\--11-11-11-11-11-|-11\--9-11-11\--11-11-11-11-11-|
|
|  Q   S  E  Q    S  S  S  S  S    Q   S  E  Q    S  S  S  S  S
|-------------------------------|-------------------------------|
|-------------------------------|-------------------------------|
|-------------------------------|-------------------------------|
|-11\--9-11-11\--11-11-11-11-11-|-11\--9-11-11\--11-11-11-11-11-|
|-11\--9-11-11\--11-11-11-11-11-|-11\--9-11-11\--11-11-11-11-11-|
|-11\--9-11-11\--11-11-11-11-11-|-11\--9-11-11\--11-11-11-11-11-|


  A5                        E5          F#5
  Gtr I
  E S E S E S E S S S S S    E  S E S S E   E  S  S  S  S  S
|-------------------------|----------------------------------|
|-------------------------|----------------------------------|
|-------------------------|----------------------------------|
|-7-7-7-7-7-7-7-7-7-7-7-7-|--2--2-2-2-2-4---4--4--4--4--4--4-|
|-7-7-7-7-7-7-7-7-7-7-7-7-|--2--2-2-2-2-4---4--4--4--4--4--4-|
|-7-7-7-7-7-7-7-7-7-7-7-7-|--2--2-2-2-2-4---4--4--4--4--4--4-|
|
| Gtr II
| E S E S E S E S S S S S    E  S E S S E   E  S  S  S  S  S
|-------------------------|----------------------------------|
|-------------------------|----------------------------------|
|-------------------------|----------------------------------|
|-7-7-7-7-7-7-7-7-7-7-7-7-|--2--2-2-2-2-4---4--4--4--4--4--4-|
|-7-7-7-7-7-7-7-7-7-7-7-7-|--2--2-2-2-2-4---4--4--4--4--4--4-|
|-7-7-7-7-7-7-7-7-7-7-7-7-|--2--2-2-2-2-4---4--4--4--4--4--4-|
|
| Gtrs III, IV
| E S E S H           E     +E.   E S E   S E  S  S  S  S  S
|-------------------------|----------------------------------|
|-------------------------|----------------------------------|
|-9-9-9-9-8---------------|----------------------------------|
|---------------------9---|-(9)---9-9-9---9-9S11-11-11-11-11-|
|-------------------------|----------------------------------|
|-------------------------|----------------------------------|


  C#5  B5                              B5C#5
   Q   S  E  Q    S  S  S  S  S    Q   S  E  Q    S  S  S  S  S
|-------------------------------|-------------------------------|
|-------------------------------|-------------------------------|
|-13\----13-13\--13-13-13-13-13-|-13\----13-13\--13-13-13-13-13-|
|-11\--9-11-11\--11-11-11-11-11-|-11\--9-11-11\--11-11-11-11-11-|
|-11\--9-11-11\--11-11-11-11-11-|-11\--9-11-11\--11-11-11-11-11-|
|-11\--9-11-11\--11-11-11-11-11-|-11\--9-11-11\--11-11-11-11-11-|
|
|  Q   S  E  Q    S  S  S  S  S    Q   S  E  Q    S  S  S  S  S
|-------------------------------|-------------------------------|
|-------------------------------|-------------------------------|
|-------------------------------|-------------------------------|
|-11\--9-11-11\--11-11-11-11-11-|-11\--9-11-11\--11-11-11-11-11-|
|-11\--9-11-11\--11-11-11-11-11-|-11\--9-11-11\--11-11-11-11-11-|
|-11\--9-11-11\--11-11-11-11-11-|-11\--9-11-11\--11-11-11-11-11-|


  A5                         E5          F#5
  Gtr I
   E S E S E S E S S S S S    E  S E S S E E S S S  S  S
|--------------------------|-----------------------------|
|--------------------------|-----------------------------|
|--------------------------|-----------------------------|
|--7-7-7-7-7-7-7-7-7-7-7-7-|--2--2-2-2-2-4-4-4-4-4--4--4-|
|--7-7-7-7-7-7-7-7-7-7-7-7-|--2--2-2-2-2-4-4-4-4-4--4--4-|
|--7-7-7-7-7-7-7-7-7-7-7-7-|--2--2-2-2-2-4-4-4-4-4--4--4-|
|
| Gtr II
|  E S E S E S E S S S S S    E  S E S S E E S S S  S  S
|--------------------------|-----------------------------|
|--------------------------|-----------------------------|
|--------------------------|-----------------------------|
|--7-7-7-7-7-7-7-7-7-7-7-7-|--2--2-2-2-2-4-4-4-4-4--4--4-|
|--7-7-7-7-7-7-7-7-7-7-7-7-|--2--2-2-2-2-4-4-4-4-4--4--4-|
|--7-7-7-7-7-7-7-7-7-7-7-7-|--2--2-2-2-2-4-4-4-4-4--4--4-|
|
| Gtrs III, IV
|  W                          Q.       H           +E
|--------------------------|-----------------------------|
|--------------------------|-----------------------------|
|--------------------------|--9--------8-----------(8)---|
|-/9-----------------------|-(9)-------------------------|
|--------------------------|-----------------------------|
|--------------------------|-----------------------------|


 Bridge
  C#5
   W           +W
|-----------|---------|
|-----------|---------|
|-13--------|-(13)----|
|-11--------|-(11)----|
|-11--------|-(11)----|
|-11--------|-(11)----|
|
|  W           +W
|-----------|---------|
|-----------|---------|
|-----------|---------|
|-11--------|-(11)----|
|-11--------|-(11)----|
|-11--------|-(11)----|
|
|  W           +W
|-----------|---------|
|-----------|---------|
|--9--------|--(9)----|
|-----------|---------|
|-----------|---------|
|-----------|---------|


   Verse 2
    Q=225
    A5                              E5              F#5
    E Q  E E Q  E   E Q  E E Q  E   E Q  E E Q  E   E Q  E E Q  E
||----------------|---------------|---------------|---------------|
||o---------------|---------------|---------------|---------------|
||--9-9--9-9-9--9-|-8-8--8--------|-4-4--4-4-4--4-|-6-6--6-6-6--6-|
||--7-7--7-7-7--7-|-7-7--7-9-9--9-|-2-2--2-2-2--2-|-4-4--4-4-4--4-|
||o-7-7--7-7-7--7-|-7-7--7-7-7--7-|-2-2--2-2-2--2-|-4-4--4-4-4--4-|
||--7-7--7-7-7--7-|-7-7--7-7-7--7-|-2-2--2-2-2--2-|-4-4--4-4-4--4-|
|
|   E Q  E E Q  E   E Q  E E Q  E   E Q  E E Q  E   E Q  E E Q  E
||----------------|---------------|---------------|---------------|
||o---------------|---------------|---------------|---------------|
||----------------|---------------|---------------|---------------|
||--7-7--7-7-7--7-|-7-7--7-7-7--7-|-2-2--2-2-2--2-|-4-4--4-4-4--4-|
||o-7-7--7-7-7--7-|-7-7--7-7-7--7-|-2-2--2-2-2--2-|-4-4--4-4-4--4-|
||--7-7--7-7-7--7-|-7-7--7-7-7--7-|-2-2--2-2-2--2-|-4-4--4-4-4--4-|


  C#5
    E  Q   E  E  Q   E    E  Q   E  E  Q   E
|----------------------|---------------------|
|----------------------|---------------------|
|-/13-13--13-13-13--13-|-13-13--13-13-13--13-|
|-/11-11--11-11-11--11-|-11-11--11-11-11--11-|
|-/11-11--11-11-11--11-|-11-11--11-11-11--11-|
|-/11-11--11-11-11--11-|-11-11--11-11-11--11-|
|
|   E  Q   E  E  Q   E    E  Q   E  E  Q   E
|----------------------|---------------------|
|----------------------|---------------------|
|----------------------|---------------------|
|-/11-11--11-11-11--11-|-11-11--11-11-11--11-|
|-/11-11--11-11-11--11-|-11-11--11-11-11--11-|
|-/11-11--11-11-11--11-|-11-11--11-11-11--11-|


   E  Q   E  E  Q   E    E  Q   E  E  Q   E
|---------------------|-----------------------||
|---------------------|----------------------o||
|-13-13--13-13-13--13-|-13-13--13-13-13--13---||
|-11-11--11-11-11--11-|-11-11--11-11-11--11---||
|-11-11--11-11-11--11-|-11-11--11-11-11--11--o||
|-11-11--11-11-11--11-|-11-11--11-11-11--11---||
|
|  E  Q   E  E  Q   E    E  Q   E  E  Q   E
|---------------------|-----------------------||
|---------------------|----------------------o||
|---------------------|-----------------------||
|-11-11--11-11-11--11-|-11-11--11-11-11--11---||
|-11-11--11-11-11--11-|-11-11--11-11-11--11--o||
|-11-11--11-11-11--11-|-11-11--11-11-11--11---||

[ Tab from: http://www.guitaretab.com/a/alexisonfire/78779.html ]
  A5                              E5              F#5
  E Q  E E Q  E   E Q  E E Q  E   E Q  E E Q  E   E Q  E E Q  E
|---------------|---------------|---------------|----------------|
|---------------|---------------|---------------|----------------|
|-9-9--9-9-9--9-|-8-8--8--------|-4-4--4-4-4--4-|-6-6--6-6-6--6--|
|-7-7--7-7-7--7-|-7-7--7-9-9--9-|-2-2--2-2-2--2-|-4-4--4-4-4--4--|
|-7-7--7-7-7--7-|-7-7--7-7-7--7-|-2-2--2-2-2--2-|-4-4--4-4-4--4--|
|-7-7--7-7-7--7-|-7-7--7-7-7--7-|-2-2--2-2-2--2-|-4-4--4-4-4--4--|
|
| E Q  E E Q  E   E Q  E E Q  E   E Q  E E Q  E   E Q  E E Q  E
|---------------|---------------|---------------|----------------|
|---------------|---------------|---------------|----------------|
|---------------|---------------|---------------|----------------|
|-7-7--7-7-7--7-|-7-7--7-7-7--7-|-2-2--2-2-2--2-|-4-4--4-4-4--4--|
|-7-7--7-7-7--7-|-7-7--7-7-7--7-|-2-2--2-2-2--2-|-4-4--4-4-4--4--|
|-7-7--7-7-7--7-|-7-7--7-7-7--7-|-2-2--2-2-2--2-|-4-4--4-4-4--4--|


  C#5            A5     E5
   E H..         E Q  E E Q  E
|--------------|---------------|
|--------------|---------------|
|-13-----------|---------------|
|-11-----------|-7-7--7-2-2--2-|
|-11-----------|-7-7--7-2-2--2-|
|-11-----------|-7-7--7-2-2--2-|
|
|  E H..         E Q  E E Q  E
|--------------|---------------|
|--------------|---------------|
|--------------|---------------|
|-11-----------|-7-7--7-2-2--2-|
|-11-----------|-7-7--7-2-2--2-|
|-11-----------|-7-7--7-2-2--2-|


   Bridge
    F#5
    E E E E E E E E   E E E E E E E E   E E E E E E E E   E E E E E E E E
||------------------|-----------------|-----------------|------------------||
||o-----------------|-----------------|-----------------|-----------------o||
||------------------|-----------------|-----------------|------------------||
||--4-4-4-4-4-4-4-4-|-4-4-4-4-4-4-4-4-|-4-4-4-4-4-4-4-4-|-4-4-4-4-4-4-4-4--||
||o-4-4-4-4-4-4-4-4-|-4-4-4-4-4-4-4-4-|-4-4-4-4-4-4-4-4-|-4-4-4-4-4-4-4-4-o||
||--4-4-4-4-4-4-4-4-|-4-4-4-4-4-4-4-4-|-4-4-4-4-4-4-4-4-|-4-4-4-4-4-4-4-4--||
|
|   E E E E E E E E   E E E E E E E E   E E E E E E E E   E E E E E E E E
||------------------|-----------------|-----------------|------------------||
||o-----------------|-----------------|-----------------|-----------------o||
||------------------|-----------------|-----------------|------------------||
||--4-4-4-4-4-4-4-4-|-4-4-4-4-4-4-4-4-|-4-4-4-4-4-4-4-4-|-4-4-4-4-4-4-4-4--||
||o-4-4-4-4-4-4-4-4-|-4-4-4-4-4-4-4-4-|-4-4-4-4-4-4-4-4-|-4-4-4-4-4-4-4-4-o||
||--4-4-4-4-4-4-4-4-|-4-4-4-4-4-4-4-4-|-4-4-4-4-4-4-4-4-|-4-4-4-4-4-4-4-4--||


   Chorus
    C#5
     E  E  E  E  E  E  E  E    E  E  E  E  E  E  E  E
||--------------------------|-------------------------|
||o-------------------------|-------------------------|
||--13-13-13-13-13-13-13-13-|-13-13-13-13-13-13-13-13-|
||--11-11-11-11-11-11-11-11-|-11-11-11-11-11-11-11-11-|
||o-11-11-11-11-11-11-11-11-|-11-11-11-11-11-11-11-11-|
||--11-11-11-11-11-11-11-11-|-11-11-11-11-11-11-11-11-|
|
|    E  E  E  E  E  E  E  E    E  E  E  E  E  E  E  E
||--------------------------|-------------------------|
||o-------------------------|-------------------------|
||--------------------------|-------------------------|
||--11-11-11-11-11-11-11-11-|-11-11-11-11-11-11-11-11-|
||o-11-11-11-11-11-11-11-11-|-11-11-11-11-11-11-11-11-|
||--11-11-11-11-11-11-11-11-|-11-11-11-11-11-11-11-11-|


   E  E  E  E  E  E  E  E    E  E  E  E  E  E  E  E
|-------------------------|-------------------------|
|-------------------------|-------------------------|
|-13-13-13-13-13-13-13-13-|-13-13-13-13-13-13-13-13-|
|-11-11-11-11-11-11-11-11-|-11-11-11-11-11-11-11-11-|
|-11-11-11-11-11-11-11-11-|-11-11-11-11-11-11-11-11-|
|-11-11-11-11-11-11-11-11-|-11-11-11-11-11-11-11-11-|
|
|  E  E  E  E  E  E  E  E    E  E  E  E  E  E  E  E
|-------------------------|-------------------------|
|-------------------------|-------------------------|
|-------------------------|-------------------------|
|-11-11-11-11-11-11-11-11-|-11-11-11-11-11-11-11-11-|
|-11-11-11-11-11-11-11-11-|-11-11-11-11-11-11-11-11-|
|-11-11-11-11-11-11-11-11-|-11-11-11-11-11-11-11-11-|


  A5
  E E E E E E E E   E E E E E E E E   E E E E E E E E   E E E E E E E E
|-----------------|-----------------|-----------------|-------------------||
|-----------------|-----------------|-----------------|------------------o||
|-9-9-9-9-9-9-9-9-|-9-9-9-9-9-9-9-9-|-9-9-9-9-9-9-9-9-|-9-9-9-9-9-9-9-9---||
|-7-7-7-7-7-7-7-7-|-7-7-7-7-7-7-7-7-|-7-7-7-7-7-7-7-7-|-7-7-7-7-7-7-7-7---||
|-7-7-7-7-7-7-7-7-|-7-7-7-7-7-7-7-7-|-7-7-7-7-7-7-7-7-|-7-7-7-7-7-7-7-7--o||
|-7-7-7-7-7-7-7-7-|-7-7-7-7-7-7-7-7-|-7-7-7-7-7-7-7-7-|-7-7-7-7-7-7-7-7---||
|
| E E E E E E E E   E E E E E E E E   E E E E E E E E   E E E E E E E E
|-----------------|-----------------|-----------------|-------------------||
|-----------------|-----------------|-----------------|------------------o||
|-----------------|-----------------|-----------------|-------------------||
|-7-7-7-7-7-7-7-7-|-7-7-7-7-7-7-7-7-|-7-7-7-7-7-7-7-7-|-7-7-7-7-7-7-7-7---||
|-7-7-7-7-7-7-7-7-|-7-7-7-7-7-7-7-7-|-7-7-7-7-7-7-7-7-|-7-7-7-7-7-7-7-7--o||
|-7-7-7-7-7-7-7-7-|-7-7-7-7-7-7-7-7-|-7-7-7-7-7-7-7-7-|-7-7-7-7-7-7-7-7---||


   Verse 3
    C#5
     PM-------------------------------------
     E  E E E E E E  E    E  E E E E E E E
||---------------------|-------------------|
||o---------------5--5-|--4--4-------------|
||---6--6-4-4-6-6------|-------4-4-6-6-4-4-|
||---------------------|-------------------|
||o--------------------|-------------------|
||---------------------|-------------------|
|
|    Q.     E q   E  E    Q.     E E E E E
||---------------------|-------------------|
||o--------------------|-------------------|
||---------------------|-------------------|
||--11\-----x-x---x-11-|-11\-----x-x-x-x-x-|
||o-11\-----x-x---x-11-|-11\-----x-x-x-x-x-|
||--11\-----x-x---x-11-|-11\-----x-x-x-x-x-|


 --------------------------------------|
   E  E E E E E E  E    E  E E E E E E E
|--------------------|-------------------|
|---------------5--5-|--4--4-------------|
|--6--6-4-4-6-6------|-------4-4-6-6-4-4-|
|--------------------|-------------------|
|--------------------|-------------------|
|--------------------|-------------------|
|
|  Q.     E q   E  E    Q.     E E E E E
|--------------------|-------------------|
|--------------------|-------------------|
|--------------------|-------------------|
|-11\-----x-x---x-11-|-11\-----x-x-x-x-x-|
|-11\-----x-x---x-11-|-11\-----x-x-x-x-x-|
|-11\-----x-x---x-11-|-11\-----x-x-x-x-x-|


  A5
  PM----------------------------------------------------------------------|
  E  E E E E E E E   E  E E E E E E E   E  E E E E E E E   E  E E E E E E E   3x
|------------------|------------------|------------------|--------------------||
|--------------5-5-|-4--4-------------|--------------5-5-|-4--4--------------o||
|-6--6-4-4-6-6-----|------4-4-6-6-4-4-|-6--6-4-4-6-6-----|------4-4-6-6-4-4---||
|------------------|------------------|------------------|--------------------||
|------------------|------------------|------------------|-------------------o||
|------------------|------------------|------------------|--------------------||
|
| Q.     E q   E E   Q.     E E E E E   Q.     E q   E E   Q.     E E E E E   3x
|------------------|------------------|------------------|--------------------||
|------------------|------------------|------------------|-------------------o||
|------------------|------------------|------------------|--------------------||
|-7\-----x-x---x-7-|-7\-----x-x-x-x-x-|-7\-----x-x---x-7-|-7\-----x-x-x-x-x---||
|-7\-----x-x---x-7-|-7\-----x-x-x-x-x-|-7\-----x-x---x-7-|-7\-----x-x-x-x-x--o||
|-7\-----x-x---x-7-|-7\-----x-x-x-x-x-|-7\-----x-x---x-7-|-7\-----x-x-x-x-x---||


  C#5
   PM-------------------------------------
   E  E E E E E E  E    E  E E E E E E E
|--------------------|-------------------|
|---------------5--5-|--4--4-------------|
|--6--6-4-4-6-6------|-------4-4-6-6-4-4-|
|--------------------|-------------------|
|--------------------|-------------------|
|--------------------|-------------------|
|
|  Q.     E E E E  E    Q.     E E E E E
|--------------------|-------------------|
|--------------------|-------------------|
|--------------------|-------------------|
|-11\-----x-x-x-x-11-|-11\-----x-x-x-x-x-|
|-11\-----x-x-x-x-11-|-11\-----x-x-x-x-x-|
|-11\-----x-x-x-x-11-|-11\-----x-x-x-x-x-|


 --------------------------------------|
   E  E E E E E E  E    E  E E E E E E E
|--------------------|--------------------|
|---------------5--5-|--4--4--------------|
|--6--6-4-4-6-6------|-------4-4-6-6-4-4--|
|--------------------|--------------------|
|--------------------|--------------------|
|--------------------|--------------------|
|
|  Q.     E E E E  E    Q.     E E E E E
|--------------------|--------------------|
|--------------------|--------------------|
|--------------------|--------------------|
|-11\-----x-x-x-x-11-|-11\-----x-x-x-x-x--|
|-11\-----x-x-x-x-11-|-11\-----x-x-x-x-x--|
|-11\-----x-x-x-x-11-|-11\-----x-x-x-x-x--|


                                        Q=103
  A5                                    N.C.
  PM--------------------------------|
  E  E E E E E E E   E  E E E E E E E   Q   H.         W
|------------------|------------------|-------------|--------|
|--------------5-5-|-4--4-------------|-------------|--------|
|-6--6-4-4-6-6-----|------4-4-6-6-4-4-|-6-----------|--------|
|------------------|------------------|-------------|--------|
|------------------|------------------|-------------|--------|
|------------------|------------------|-------------|--------|
|
| Q.     E E E E E   Q.     E E E E E   E E H.         W
|------------------|------------------|-------------|--------|
|------------------|------------------|-------------|--------|
|------------------|------------------|-------------|--------|
|-7\-----x-x-x-x-7-|-7\-----x-x-x-x-x-|-x-x---------|--------|
|-7\-----x-x-x-x-7-|-7\-----x-x-x-x-x-|-x-x---------|--------|
|-7\-----x-x-x-x-7-|-7\-----x-x-x-x-x-|-x-x---------|--------|
|
| Gtrs III, IV
|                                       <
|                                       ~~~~~~~~~~~~~~~~~~
| W                  W                  W             +W
|------------------|------------------|-9-----------|-(9)----|
|------------------|------------------|-------------|--------|
|------------------|------------------|-------------|--------|
|------------------|------------------|-------------|--------|
|------------------|------------------|-------------|--------|
|------------------|------------------|-------------|--------|


  Gtrs III, IV
  ~~~~~~~~~~~~~~~
  W          +W
|-7--------|-(7)----|
|----------|--------|
|----------|--------|
|----------|--------|
|----------|--------|
|----------|--------|


   Final Chorus
    Q=225
    C#5
    Gtr I
     E  E  E  E  E  E  E  E    E  E  E  E  E  E  E  E
||--------------------------|-------------------------|
||o-------------------------|-------------------------|
||--13-13-13-13-13-13-13-13-|-13-13-13-13-13-13-13-13-|
||--11-11-11-11-11-11-11-11-|-11-11-11-11-11-11-11-11-|
||o-11-11-11-11-11-11-11-11-|-11-11-11-11-11-11-11-11-|
||--11-11-11-11-11-11-11-11-|-11-11-11-11-11-11-11-11-|
|
|   Gtr II
|    E  E  E  E  E  E  E  E    E  E  E  E  E  E  E  E
||--------------------------|-------------------------|
||o-------------------------|-------------------------|
||--------------------------|-------------------------|
||--11-11-11-11-11-11-11-11-|-11-11-11-11-11-11-11-11-|
||o-11-11-11-11-11-11-11-11-|-11-11-11-11-11-11-11-11-|
||--11-11-11-11-11-11-11-11-|-11-11-11-11-11-11-11-11-|


   E  E  E  E  E  E  E  E    E  E  E  E  E  E  E  E
|-------------------------|-------------------------|
|-------------------------|-------------------------|
|-13-13-13-13-13-13-13-13-|-13-13-13-13-13-13-13-13-|
|-11-11-11-11-11-11-11-11-|-11-11-11-11-11-11-11-11-|
|-11-11-11-11-11-11-11-11-|-11-11-11-11-11-11-11-11-|
|-11-11-11-11-11-11-11-11-|-11-11-11-11-11-11-11-11-|
|
|  E  E  E  E  E  E  E  E    E  E  E  E  E  E  E  E
|-------------------------|-------------------------|
|-------------------------|-------------------------|
|-------------------------|-------------------------|
|-11-11-11-11-11-11-11-11-|-11-11-11-11-11-11-11-11-|
|-11-11-11-11-11-11-11-11-|-11-11-11-11-11-11-11-11-|
|-11-11-11-11-11-11-11-11-|-11-11-11-11-11-11-11-11-|


  A5
  E E E E E E E E   E E E E E E E E   E E E E E E E E   E E E E E E E E   4x
|-----------------|-----------------|-----------------|-------------------||
|-----------------|-----------------|-----------------|------------------o||
|-9-9-9-9-9-9-9-9-|-9-9-9-9-9-9-9-9-|-9-9-9-9-9-9-9-9-|-9-9-9-9-9-9-9-9---||
|-7-7-7-7-7-7-7-7-|-7-7-7-7-7-7-7-7-|-7-7-7-7-7-7-7-7-|-7-7-7-7-7-7-7-7---||
|-7-7-7-7-7-7-7-7-|-7-7-7-7-7-7-7-7-|-7-7-7-7-7-7-7-7-|-7-7-7-7-7-7-7-7--o||
|-7-7-7-7-7-7-7-7-|-7-7-7-7-7-7-7-7-|-7-7-7-7-7-7-7-7-|-7-7-7-7-7-7-7-7---||
|
| E E E E E E E E   E E E E E E E E   E E E E E E E E   E E E E E E E E   4x
|-----------------|-----------------|-----------------|-------------------||
|-----------------|-----------------|-----------------|------------------o||
|-----------------|-----------------|-----------------|-------------------||
|-7-7-7-7-7-7-7-7-|-7-7-7-7-7-7-7-7-|-7-7-7-7-7-7-7-7-|-7-7-7-7-7-7-7-7---||
|-7-7-7-7-7-7-7-7-|-7-7-7-7-7-7-7-7-|-7-7-7-7-7-7-7-7-|-7-7-7-7-7-7-7-7--o||
|-7-7-7-7-7-7-7-7-|-7-7-7-7-7-7-7-7-|-7-7-7-7-7-7-7-7-|-7-7-7-7-7-7-7-7---||


   Outro
    Q=103
    C#5  B5C#5                           B5C#5
     Q   S  E  Q    S  S  S  S  S    Q   S  E  Q    S  S  S  S  S
||--------------------------------|--------------------------------||
||o-------------------------------|-------------------------------o||
||--13\----13-13\--13-13-13-13-13-|-13\----13-13\--13-13-13-13-13--||
||--11\--9-11-11\--11-11-11-11-11-|-11\--9-11-11\--11-11-11-11-11--||
||o-11\--9-11-11\--11-11-11-11-11-|-11\--9-11-11\--11-11-11-11-11-o||
||--11\--9-11-11\--11-11-11-11-11-|-11\--9-11-11\--11-11-11-11-11--||
|
|    Q   S  E  Q    S  S  S  S  S    Q   S  E  Q    S  S  S  S  S
||--------------------------------|--------------------------------||
||o-------------------------------|-------------------------------o||
||--------------------------------|--------------------------------||
||--11\--9-11-11\--11-11-11-11-11-|-11\--9-11-11\--11-11-11-11-11--||
||o-11\--9-11-11\--11-11-11-11-11-|-11\--9-11-11\--11-11-11-11-11-o||
||--11\--9-11-11\--11-11-11-11-11-|-11\--9-11-11\--11-11-11-11-11--||


  A5                      E5   C#5
                       2/8    4/4
  E S E S E S E S E E   E E     Q   H.
|---------------------|------|------------*|
|---------------------|------|------------*|
|-9-9-9-9-8-8-8-------|------|------------*|
|-7-7-7-7-7-7-7-9-9-9-|-9-2\-|-11\--------*|
|-7-7-7-7-7-7-7-7-7-7-|-7-2\-|-11\--------*|
|-7-7-7-7-7-7-7-7-7-7-|-7-2\-|-11\--------*|
|
| E S E S E S E S E E   E E     Q   H.
|---------------------|------|------------*|
|---------------------|------|------------*|
|---------------------|------|------------*|
|-7-7-7-7-7-7-7-7-7-7-|-7-2\-|-11\--------*|
|-7-7-7-7-7-7-7-7-7-7-|-7-2\-|-11\--------*|
|-7-7-7-7-7-7-7-7-7-7-|-7-2\-|-11\--------*|




--------------------------------------------------------------------------------


Duration Legend
---------------
W - whole; H - half; Q - quarter; E - 8th; S - 16th; T - 32nd; X - 64th
Related for That Girl Possessed tab
×
That Girl Possessed