Song name
# A B C D E F G H I J K L M N O P Q R S T U V W X Y Z

Alexisonfire - My God Is A Reasonable Man tab

|------------------------------------------------------------|
|---12p8h10p8----(2x)----12p8h10h12p8-8h10p8-----------------|     Part 1
|------------------------------------------------------------|     Play 9x
|------------------------------------------------------------|
|------------------------------------------------------------|
|------------------------------------------------------------|


|------------------------------------------------------------|
|-12p8h10p8--(2x)---10~--------------------------------------|     Part 2
|------------------------------------------------------------|     Play 1x
|------------------------------------------------------------|
|------------------------------------------------------------|
|------------------------------------------------------------|


|------------------------------------------------------------|
|--8-7-------------7-8-7-----8-7-------------10-8-7-8-7------|     Part 3
|------7-------7-9-------9~------7-------7-9------------9----|     Play 4x
|--------9-7-9---------------------9-7-9---------------------|
|------------------------------------------------------------|
|------------------------------------------------------------|


|----x--x--x-------------------------------------------------|
|----x--x--x-------------------------------------------------|     Part 4 
|----8--8--8\------------------------------------------------|     Play 1x
|----8--8--6\------------------------------------------------|
|----6--6--6\------------------------------------------------|
|----x--x--x-------------------------------------------------|

(2x) play part before this symbol twice
P = pull off  h = hammer on
~ = let ring  x = mute string
\ = slide down
This is my second tab, i plan on getting the whole song done soon. please rate or comment.
Tap to rate this tab
# A B C D E F G H I J K L M N O P Q R S T U V W X Y Z