Guitaretab - guitar tabs
Song name
# A B C D E F G H I J K L M N O P Q R S T U V W X Y Z

Alexisonfire - Passing Out In America tab

100%, flat

Guitar 1///////////////////////////////

Intro (00:00  00:08) 

*No Distortion* 

Eb|--------------------------------|
Bb|--------------------------------|
Gb|----10----10--------------------|
Db|--10--10-10-10------12-----8----|
Ab|-8-8--7-7--------12---12-8--8---|
Eb|--------------10--10----6-6-----|

Eb|---------------------------|
Bb|---------------------------|
Gb|----10----10---------------|
Db|--10--10-10-10------12-----|
Ab|-8-8--7-7--------12---12---|
Eb|--------------10--10-------|

*Distortion*

Eb|---------|
Bb|---------|
Gb|---------|
Db|-88888---|
Ab|-88888---|
Eb|-66666---|

Intro 2 (00:08  00:24)

Eb|-------------------------------------------------|
Bb|-------------------------------------------------|
Gb|-101010101010-101010101010-----------------------| x4 
Db|-x-x-x-x-x-x--x-x-x-x-x-x--121212121212-888888---|
Ab|-8-8-8-8-8-8--7-7-7-7-7-7--x-x-x-x-x-x--x-x-x----|
Eb|---------------------------101010101010-666666---|

Verse 1 (00:24  00:43)

N/A

Bridge (00:43  00:59)

Eb|-------------------------------------------------|
Bb|-------------------------------------------------|
Gb|-101010101010-101010101010-----------------------| x4 
Db|-x-x-x-x-x-x--x-x-x-x-x-x--121212121212-888888---|
Ab|-8-8-8-8-8-8--7-7-7-7-7-7--x-x-x-x-x-x--x-x-x----|
Eb|---------------------------101010101010-666666---|

Verse 2 (00:59  01:15)

N/A

Bridge 2 (01:15  01:31)

Eb|-------------------------------------------------|
Bb|-------------------------------------------------|
Gb|-101010101010-101010101010-----------------------| x4 
Db|-x-x-x-x-x-x--x-x-x-x-x-x--121212121212-888888---|
Ab|-8-8-8-8-8-8--7-7-7-7-7-7--x-x-x-x-x-x--x-x-x----|
Eb|---------------------------101010101010-666666---|

Chorus (01:31  02:07)

Eb|----------------------------------|
Bb|----------------------------------|
Gb|---------------1010101010-99999---| x7 
Db|-8-8888-8-8888-x-x-x-x-x--xxxxx---|
Ab|-8-8888-8-8888-8-8-8-8-8--77777---|
Eb|-6-6666-6-6666--------------------|

Eb|-----------------|
Bb|-----------------|
Gb|-----------------|
Db|-8-8888-8-8888---|
Ab|-8-8888-8-8888---|
Eb|-6-6666-6-6666---|

Eb|-----|
Bb|-----|
Gb|-----|
Db|-3---|
Ab|-3---|
Eb|-1---|

Bridge 3 (02:07  02:34)

Eb|-----------------------------------------------------|
Bb|-----------------------------------------------------|
Gb|-101010101010101010101010-9-9-9-9-9-9-9-9-9-9-9-9----| x4 
Db|-x-x-x-x-x-x-x-x-x-x-x-x--x-x-x-x-x-x-x-x-x-x-x-x----|
Ab|-8-8-8-8-8-8-8-8-8-8-8-8--7-7-7-7-7-7-7-7-7-7-7-7----|
Eb|-----------------------------------------------------|

Chorus 2 (02:34  03:06)

Eb|----------------------------------|
Bb|----------------------------------|
Gb|---------------1010101010-99999---| x7 
Db|-8-8888-8-8888-x-x-x-x-x--xxxxx---|
Ab|-8-8888-8-8888-8-8-8-8-8--77777---|
Eb|-6-6666-6-6666--------------------|

Eb|-----------------|
Bb|-----------------|
Gb|-----------------|
Db|-8-8888-8-8888---|
Ab|-8-8888-8-8888---|
Eb|-6-6666-6-6666---|

Bridge 4 (03:06 - 4:00) 

Eb|---------------------------------|
Bb|---------------------------------|
Gb|---10----------------------------| x5 
Db|------10-------------------------|
Ab|-8---------7/8/7/8/10----7/8/7---|
Eb|---------------------------------|

Guitar 2////////////////////////

Intro (00:00  00:08)

Eb|---------|
Bb|---------|
Gb|---------|
Db|-88888---|
Ab|-88888---|
Eb|-66666---|

Intro 2 (00:08  00:24)

Eb|-------------------------------------------------------|
Bb|-------------------------------------------------------|
Gb|-14-14-14-14-14-12-12-12-14-10-10-10-10-10-9-9-9/5-5---| 
Db|-x--x--x--x--x--x--x--x--x--x--x--x--x--x--x-x-x/x-x---|
Ab|-12-12-12-12-12-10-10-10-12-8--8--8--8--8--7-7-7/3-3---|
Eb|-------------------------------------------------------|

Eb|---------------------------------------------------------------------------|
Bb|---------------------------------------------------------------------------|
Gb|-14-14-14-14-14-17-17-17-17-17-15-15/14-14/15-15/14-14-12-12-12-10-10-10---| 
Db|-x--x--x--x--x--x--x--x--x--x--x--x-/x--x-/x--x-/x--x--x--x--x--x--x--x----|
Ab|-12-12-12-12-12-15-15-15-15-15-13-13/12-12/13-13/12-12-10-10-10-8--8--8----|
Eb|---------------------------------------------------------------------------|

Eb|-------------------------------------------------------|
Bb|-------------------------------------------------------|
Gb|-14-14-14-14-14-12-12-12-14-10-10-10-10-10-9-9-9/5-5---| 
Db|-x--x--x--x--x--x--x--x--x--x--x--x--x--x--x-x-x/x-x---|
Ab|-12-12-12-12-12-10-10-10-12-8--8--8--8--8--7-7-7/3-3---|
Eb|-------------------------------------------------------|

Eb|---------------------------------------------------------------------------|
Bb|---------------------------------------------------------------------------|
Gb|-14-14-14-14-14-17-17-17-17-17-15-15/14-14/15-15/14-14-12-12-12-10-10-10---| 
Db|-x--x--x--x--x--x--x--x--x--x--x--x-/x--x-/x--x-/x--x--x--x--x--x--x--x----|
Ab|-12-12-12-12-12-15-15-15-15-15-13-13/12-12/13-13/12-12-10-10-10-8--8--8----|
Eb|---------------------------------------------------------------------------|

Verse 1 (00:24  00:43)

Eb|--------------------------------------------------------------|
Bb|--------------------------------------------------------------|
Gb|--------------------------------------------------------------|
Db|--------------------------------------------------------------|
Ab|-10-12-12-12-12-12-10-12-12-12-12-12-10-12-12-12-12-12-10-8---|
Eb|--------------------------------------------------------------|
..................................................................Palm mute 

Eb|------------------------------------------------------------------|
Bb|------------------------------------------------------------------|
Gb|------------------------------------------------------------------|
Db|------------------------------------------------------------------|
Ab|-10-12-12-12-12-12-10-12-12-12-12-12-10-12-12-12-12-12-15-13-12---|
Eb|------------------------------------------------------------------|
......................................................................Palm mute
[ Tab from: http://www.guitaretab.com/a/alexisonfire/79544.html ]
Eb|-------------------------------------------------------------------------------|
Bb|-------------------------------------------------------------------------------|
Gb|-----------------------------------------7-8-10-8-7-8-10-8-7-8-10-8-7-8-10-8---|
Db|-------------------------------------------------------------------------------|
Ab|-10-12-10-8-10-8-7-5-3-5-7-8-7-8-10-8-7----------------------------------------|
Eb|-------------------------------------------------------------------------------|
..........................................Palm mute

Bridge (00:43  00:59)


Eb|-------------------------------------------------------|
Bb|-------------------------------------------------------|
Gb|-14-14-14-14-14-12-12-12-14-10-10-10-10-10-9-9-9/5-5---| 
Db|-x--x--x--x--x--x--x--x--x--x--x--x--x--x--x-x-x/x-x---|
Ab|-12-12-12-12-12-10-10-10-12-8--8--8--8--8--7-7-7/3-3---|
Eb|-------------------------------------------------------|

Eb|---------------------------------------------------------------------------|
Bb|---------------------------------------------------------------------------|
Gb|-14-14-14-14-14-17-17-17-17-17-15-15/14-14/15-15/14-14-12-12-12-10-10-10---| 
Db|-x--x--x--x--x--x--x--x--x--x--x--x-/x--x-/x--x-/x--x--x--x--x--x--x--x----|
Ab|-12-12-12-12-12-15-15-15-15-15-13-13/12-12/13-13/12-12-10-10-10-8--8--8----|
Eb|---------------------------------------------------------------------------|

Eb|-------------------------------------------------------|
Bb|-------------------------------------------------------|
Gb|-14-14-14-14-14-12-12-12-14-10-10-10-10-10-9-9-9/5-5---| 
Db|-x--x--x--x--x--x--x--x--x--x--x--x--x--x--x-x-x/x-x---|
Ab|-12-12-12-12-12-10-10-10-12-8--8--8--8--8--7-7-7/3-3---|
Eb|-------------------------------------------------------|

Eb|---------------------------------------------------------------------------|
Bb|---------------------------------------------------------------------------|
Gb|-14-14-14-14-14-17-17-17-17-17-15-15/14-14/15-15/14-14-12-12-12-10-10-10---| 
Db|-x--x--x--x--x--x--x--x--x--x--x--x-/x--x-/x--x-/x--x--x--x--x--x--x--x----|
Ab|-12-12-12-12-12-15-15-15-15-15-13-13/12-12/13-13/12-12-10-10-10-8--8--8----|
Eb|---------------------------------------------------------------------------|

Verse 2 (00:59  01:15)


Eb|--------------------------------------------------------------|
Bb|--------------------------------------------------------------|
Gb|--------------------------------------------------------------|
Db|--------------------------------------------------------------|
Ab|-10-12-12-12-12-12-10-12-12-12-12-12-10-12-12-12-12-12-10-8---|
Eb|--------------------------------------------------------------|
..................................................................Palm mute 

Eb|------------------------------------------------------------------|
Bb|------------------------------------------------------------------|
Gb|------------------------------------------------------------------|
Db|------------------------------------------------------------------|
Ab|-10-12-12-12-12-12-10-12-12-12-12-12-10-12-12-12-12-12-15-13-12---|
Eb|------------------------------------------------------------------|
......................................................................Palm mute

Eb|-------------------------------------------------------------------------------|
Bb|-------------------------------------------------------------------------------|
Gb|-----------------------------------------7-8-10-8-7-8-10-8-7-8-10-8-7-8-10-8---|
Db|-------------------------------------------------------------------------------|
Ab|-10-12-10-8-10-8-7-5-3-5-7-8-7-8-10-8-7----------------------------------------|
Eb|-------------------------------------------------------------------------------|
..........................................Palm mute

Bridge 2 (01:15  01:31)

Eb|-------------------------------------------------------|
Bb|-------------------------------------------------------|
Gb|-14-14-14-14-14-12-12-12-14-10-10-10-10-10-9-9-9/5-5---| 
Db|-x--x--x--x--x--x--x--x--x--x--x--x--x--x--x-x-x/x-x---|
Ab|-12-12-12-12-12-10-10-10-12-8--8--8--8--8--7-7-7/3-3---|
Eb|-------------------------------------------------------|

Eb|---------------------------------------------------------------------------|
Bb|---------------------------------------------------------------------------|
Gb|-14-14-14-14-14-17-17-17-17-17-15-15/14-14/15-15/14-14-12-12-12-10-10-10---| 
Db|-x--x--x--x--x--x--x--x--x--x--x--x-/x--x-/x--x-/x--x--x--x--x--x--x--x----|
Ab|-12-12-12-12-12-15-15-15-15-15-13-13/12-12/13-13/12-12-10-10-10-8--8--8----|
Eb|---------------------------------------------------------------------------|

Eb|-------------------------------------------------------|
Bb|-------------------------------------------------------|
Gb|-14-14-14-14-14-12-12-12-14-10-10-10-10-10-9-9-9/5-5---| 
Db|-x--x--x--x--x--x--x--x--x--x--x--x--x--x--x-x-x/x-x---|
Ab|-12-12-12-12-12-10-10-10-12-8--8--8--8--8--7-7-7/3-3---|
Eb|-------------------------------------------------------|

Eb|---------------------------------------------------------------------------|
Bb|---------------------------------------------------------------------------|
Gb|-14-14-14-14-14-17-17-17-17-17-15-15/14-14/15-15/14-14-12-12-12-10-10-10---| 
Db|-x--x--x--x--x--x--x--x--x--x--x--x-/x--x-/x--x-/x--x--x--x--x--x--x--x----|
Ab|-12-12-12-12-12-15-15-15-15-15-13-13/12-12/13-13/12-12-10-10-10-8--8--8----|
Eb|---------------------------------------------------------------------------|

Chorus (01:31  02:07)

*No Distortion*

Eb|------------|
Bb|------17----|
Gb|----16------| x2 
Db|-16---------|
Ab|------------|
Eb|------------|

*Distortion*

Eb|----------------------------------|
Bb|----------------------------------|
Gb|---------------1010101010-99999---| x7 
Db|-8-8888-8-8888-x-x-x-x-x--xxxxx---|
Ab|-8-8888-8-8888-8-8-8-8-8--77777---|
Eb|-6-6666-6-6666--------------------|

Eb|-----------------|
Bb|-----------------|
Gb|-----------------| 
Db|-8-8888-8-8888---|
Ab|-8-8888-8-8888---|
Eb|-6-6666-6-6666---|

Eb|-----|
Bb|-----|
Gb|-----|
Db|-3---|
Ab|-3---|
Eb|-1---|

Bridge 3 (02:07  02:34)

Eb|------------|
Bb|------------|
Gb|------------| x7 
Db|-78-7h810---|
Ab|------------|
Eb|------------|

Eb|-------|
Bb|-------|
Gb|-10b---| 
Db|-------|
Ab|-------|
Eb|-------|

Chorus 2 (02:34  03:06)

Eb|----------------------------------|
Bb|----------------------------------|
Gb|---------------1010101010-99999---| x7 
Db|-8-8888-8-8888-x-x-x-x-x--xxxxx---|
Ab|-8-8888-8-8888-8-8-8-8-8--77777---|
Eb|-6-6666-6-6666--------------------|

Eb|-----------------|
Bb|-----------------|
Gb|-----------------| 
Db|-8-8888-8-8888---|
Ab|-8-8888-8-8888---|
Eb|-6-6666-6-6666---|

Bridge 4 (03:06 - 4:00) 

Eb|------|
Bb|------|
Gb|-12---| x4 
Db|-x----|
Ab|-10---|
Eb|------|
Related for Passing Out In America tab