Song name
# A B C D E F G H I J K L M N O P Q R S T U V W X Y Z

Alexisonfire - It Was Fear Of Myself That Made Me Odd tab

Drop D, Half-Step Down

Opening Chord

e|-2-------------------------------------------------------------------------|
B|-0-------------------------------------------------------------------------|
G|-0-------------------------------------------------------------------------|
D|-2-------------------------------------------------------------------------|
A|-2-------------------------------------------------------------------------|
E|-2-------------------------------------------------------------------------|

Verse- Clean Guitar 

e|-3----3-2-----5555555------------------------------------------------------|
B|---------------------------------------------------------------------------|
G|---------------------------------------------------------------------------|
D|---------------------------------------------------------------------------|
A|---------------------------------------------------------------------------|
E|---------------------------------------------------------------------------|

Verse- Dist. Guitar (Comes in 2nd repeat)
e|--------7-----------------10-----------7---------7--------10---------------|
B|--7-------------7h8p7---8-----------------7h8p7--------10------------------|
G|---------------------9-----------------------------------------------------|
D|---------------------------------------------------------------------------|
A|---------------------------------------------------------------------------|
E|---------------------------------------------------------------------------|


Backing Chords for Verse are Em, C, D and Am

Bridge
e|---------------------------------------------------------------------------|
B|----------------------------7h8p7--7h8-10---10-8p7-------------------------|
G|---------------------------------9-----------------------------------------|
D|--22222222-----------------------------------------------------------------|
A|--22222222--etc------------------------------------------------------------|
E|--22222222-----------------------------------------------------------------|
  Muted Dist. Guitar           Clean Guitar Plays


Time Change

Guitar 1
e|---------------------------------------------------------------------------|
B|---------------------------------------------------------------------------|
G|---------------------------------------------------------------------------|
D|-xx-12------11-12--------xx-12------11h12---12/16--------------------------|
A|-------12-9-------12-9---------12-9------12--------------------------------|
E|---------------------------------------------------------------------------|

Guitar 2
e|---------------------------------------------------------------------------|
B|---------------------------------------------------------------------------|
G|--------------------------5------------------------------------------------|
D|--2-----------------------5------------------------------------------------|
A|--2-----------------------3------------------------------------------------|
E|--2------------------------------------------------------------------------|

Guitar 1 Cont.
e|---------------------------------------------------------------------------|
B|---------------------------------------------------------------------------|
G|-------------------------------------------x12x10x12-----------------------|
D|--xx-12------12-11------11h12p11--11h12p11---------------------------------|
A|--------12-9-------12------------------------------------------------------|
E|---------------------------------------------------------------------------|

Guitar 2 Cont.
e|---------------------------------------------------------------------------|
B|---------------------------------------------------------------------------|
G|--7--------------------2---------------------------------------------------|
D|--7--------------------2---------------------------------------------------|
A|--5--------------------0---------------------------------------------------|
E|---------------------------------------------------------------------------|

Play Twice, and then:

e|---------------------------------------------------------------------------|
B|---------------------------------------------------------------------------|
G|---------------------------------------------------------------------------|
D|---7--7--7--7p5------------------------------------------------------------|
A|---7--7--7--7p5------------------------------------------------------------|
E|---7--7--7--7p5------------------------------------------------------------|

Heavy Part:

Guitar 1
e|---------------------------------------------------------------------------|
B|---------------------------------------------------------------------------|
G|-----------------5-5-5-5-5-5-5-5-7-7-7-7-7-7-7-7---------------------------|
D|-2-2-2-2-2-2-2-2-5-5-5-5-5-5-5-5-7-7-7-7-7-7-7-7-7-7-7-7-7-7-7-7-----------|
A|-2-2-2-2-2-2-2-2-3-3-3-3-3-3-3-3-5-5-5-5-5-5-5-5-7-7-7-7-7-7-7-7-----------|
E|-2-2-2-2-2-2-2-2---------------------------------7-7-7-7-7-7-7-7-----------|

Guitar 2 Solo
e|-----------------------10------------10------------/12-10---10--------//15-|
B|-7h8p7---7h8p7---7h8p7-----8---7h8p7-----8---7h8p7-------12----12-10-------|
G|------9-------9------------------------------------------------------------|
D|---------------------------------------------------------------------------|
A|---------------------------------------------------------------------------|
E|---------------------------------------------------------------------------|

Play twice, and then:


e|---------------------------------------------------------------------------|
B|---------------------------------------------------------------------------|
G|---------------------------------------------------------------------------|
D|--7--7--7--7--7--7--7--5--2------------------------------------------------|
A|--7--7--7--7--7--7--7--5--2------------------------------------------------|
E|--7--7--7--7--7--7--7--5--2------------------------------------------------|

Bass and Drums. And then:

Guitar 1
e|---------------------------------------------------------------------------|
B|---------------------------------------------------------------------------|
G|-----------------5-5-5-5-5-5-5-5-7-7-7-7-7-7-7-7---------------------------|
D|-2-2-2-2-2-2-2-2-5-5-5-5-5-5-5-5-7-7-7-7-7-7-7-7-7-7-7-7-7-7-7-7-----------|
A|-2-2-2-2-2-2-2-2-3-3-3-3-3-3-3-3-5-5-5-5-5-5-5-5-7-7-7-7-7-7-7-7-----------|
E|-2-2-2-2-2-2-2-2---------------------------------7-7-7-7-7-7-7-7-----------|

Guitar 2
e|-----------10---------12-12p10---12-12p10----------------------------------|
B|--12-10-12---12-10-12---------12---------12--------------------------------|
G|---------------------------------------------------------------------------|
D|---------------------------------------------------------------------------|
A|---------------------------------------------------------------------------|
E|---------------------------------------------------------------------------|

Guitar 2 Cont.
e|-12-12-10----12-12-10--12-10------------15////////////---------------------|
B|---------------------------------------------------------------------------|
G|--------------------------------x2times------------------------------------|
D|---------------------------------------------------------------------------|
A|---------------------------------------------------------------------------|
E|---------------------------------------------------------------------------|

e|---------------------------------------------------------------------------|
B|---------------------------------------------------------------------------|
G|---------------------------------------------------------------------------|
D|-2--------------------------------------------------------------------------|
A|-2--------------------------------------------------------------------------|
E|-2--------------------------------------------------------------------------|

| /  slide up
| \  slide down
| h  hammer-on
| p  pull-off
| ~  vibrato
| +  harmonic
| x  Mute note
Tap to rate this tab
# A B C D E F G H I J K L M N O P Q R S T U V W X Y Z