Song name
# A B C D E F G H I J K L M N O P Q R S T U V W X Y Z

Alexisonfire - To A Friend tab

Ok guys, first off i would like to say that this is my first tab ever. So If im wrong,
flame me. This song is one of the greatest songs by Alexisonfire. it isn't 100%, but
If you would like, you can take this tab and make something better out of it, but a 
would always be appreciated. Email me for questions, or just general stuff. Thanks
-------------------------------------------------------------------------------
			     To a Friend - Alexisonfire
-------------------------------------------------------------------------------
Tabbed by: Hadi Mirza
Email: vandal31593@gmail.com

Tuning: Standard

Intro
Clean         Let both chords ring
e|------0-----------------|
b|------0-----------------|
g|------4--------2--------|
d|------2--------0--------|
a|------3--------2--------|
e|------------------------|

        Gtr. 1 (those are 12's)
e|------------------------------------------------|
b|------------------------------------------------|
g|------------------------------------------------|
d|------------------------------------------------|
a|------------------------------------------------|
e|--12121212121212121212121212121212121212121212--|
                           |____________________|
                              Slight Bending

             Gtr. 2
e|------------------------------------------------|
b|------------------------------------------------|
g|----9----9------12-9-----9-----12---------------|
d|----9----9------12-9-----9-----12---------------|
a|----7----7------10-7-----7-----10---------------|
e|------------------------------------------------|
            Gtr. 1
e|------------------------------------------------|
b|------------------------------------------------|
g|------------------------------------------------|
d|-------5-----7-7-7-7-7-7--5-4--5-2----0-0-------| x4 On the 4th time, don't play the zero's
a|---5h7------------------------------------------|
e|------------------------------------------------|

e|---------------------------------------------------------------------------|
B|---------------------------------------------------------------------------|
G|---12----------11----------9-----------7-7-7-------------------------------| x4
D|---x----x8-----x----x8-----x----x12----x-x-x-------------------------------|
A|---10----------9-----------7-----------5-5-5-------------------------------|
E|---------------------------------------------------------------------------|

e|--------------------------------------------15--14-------------------------|
B|-----------------------------------------------------12--------------------|
G|--7/9----------------------------------------------------------------------|
D|--7/9------10--9--7---5h7p5------------------------------------------------|
A|--5/7------------------------7---------------------------------------------|
E|---------0-----------------------------------------------------------------|

e|---------------------------------------------------------------------------|
B|---------------------------------------------------------------------------|
G|---------------------------------------------------------------------------|
D|-----------10--9--7---5h7p5------------------------------------------------|
A|-----------------------------7--------7/9\5--------------------------------|
E|---------0-----------------------------------------------------------------|


e|--------------------------------------------15--14-------------------------|
B|-----------------------------------------------------12--------------------|
G|---------------------------------------------------------------------------|
D|-----------10--9--7---5h7p5------------------------------------------------|
A|-----------------------------7---------------------------------------------|
E|---------0-----------------------------------------------------------------|

e|---------------------------------------------------------------------------|
B|---------------------------------------------------------------------------|
G|---------------------------------------------------------------------------|
D|-----------10--9--7---5h7p5------------------------------------------------|
A|-----------------------------7---------------------------------------------|
E|---------0-----------------------------------------------------------------|

e|---------------------------------------------------------------------------|
B|---------------------------------------------------------------------------|
G|---------------------------------------------------------------------------| x3
D|---------------------------------------------------------------------------|
A|----777777777-101010----101010--99999-10-77777-555-------------------------|
E|---------------------77----------------------------------------------------|

e|---------------------------------------------------------------------------|
B|---------------------------------------------------------------------------|
G|---------------------------------------------------------------------------|
D|---------------------------------------------------------------------------|
A|-----777777777777777777777777777777777777777777777777777777777777----------|
E|---------------------------------------------------------------------------|
                                       Gtr.1
e|---10--10--10--10--10--10--10--10---10--10--10--10--10--10--10--10---------|
B|----8---8---8---8---8---8---8---8----7---7---7---7---7---7---7---7---------|
G|---------------------------------------------------------------------------|
D|---------------------------------------------------------------------------|
A|---------------------------------------------------------------------------|
E|---------------------------------------------------------------------------|
                                      Gtr. 2
e|----0----------------------------------------------------------------------|
b|----0----------------------------------------------------------------------|
g|----4--------------------------------2-------------------------------------|
d|----2--------------------------------0-------------------------------------|
a|----3--------------------------------2-------------------------------------|
e|---------------------------------------------------------------------------|

e|---------------------------------------------------------------------------|
B|---------------------------------------------------------------------------|
G|---9-----------7-7-7-------------------------------------------------------|
D|---x----x12----x-x-x-------------------------------------------------------|
A|---7-----------5-5-5-------------------------------------------------------|
E|---------------------------------------------------------------------------|

e|---------------------------------------------------------------------------|
B|---------------------------------------------------------------------------|
G|---12----------11----------9-----------7-7-7-------------------------------| x3
D|---x----x8-----x----x8-----x----x12----x-x-x-------------------------------|
A|---10----------9-----------7-----------5-5-5-------------------------------|
E|---------------------------------------------------------------------------|
            Gtr. 1
e|------------------------------------------------|
b|------------------------------------------------|
g|------------------------------------------------|
d|------------------------------------------------|
a|------------------------------------------------|
e|--12121212121212121212121212121212121212121212--|
                           |____________________|
                              Slight Bending

             Gtr. 2
e|------------------------------------------------|
b|------------------------------------------------|
g|----9----9------12-9-----9-----12---------------|
d|----9----9------12-9-----9-----12---------------|
a|----7----7------10-7-----7-----10---------------|
e|------------------------------------------------|

e|-----------------------|
b|-----------------------|
g|----9--7--7--7---------| x4
d|----9--7--7--7---------|
a|----7--5--5--5---------|
e|-----------------------|

Clean
e|------0------------------|
b|------0------------------|
g|------4--------2-----2---| x4
d|------2--------0-----0---|
a|------3--------2-----2---|
e|---------------------2---|

e|------0-----------------|
b|------0-----------------|
g|------4--------2--------|
d|------2--------0--------|
a|------3--------2--------|
e|------------------------|

| /  slide up
| \  slide down
| h  hammer-on
| p  pull-off
| ~  vibrato
| +  harmonic
| x  Mute note
===============================================================================

Tabbed by Hadi Mirza/hadimirza.com/vandal31593@gmail.com
Tap to rate this tab
# A B C D E F G H I J K L M N O P Q R S T U V W X Y Z