Song name
# A B C D E F G H I J K L M N O P Q R S T U V W X Y Z

Alexz Johnson - Your Eyes tab

Hi everyone its my first tab ;)
love Martina

e|---------------------------------------------------------------------------|
B|------3-------------------3----------------3-------------------3-----------|
G|-----0-------------------0----------------0-------------------0------------|
D|----2-------------------2----------------3-------------------2-------------|
A|---2-------------------3----------------2-------------------3--------------|
E|---------------------------------------------------------------------------|
        If I was drowning in the sea...        would you dive right in  
 
e|---------------------------------------------------------------------------|
B|-----------------------3---------------------3-----------------------------|
G|----------------------0---------------------0------------------------------|
D|---------------------2---------------------2-------------------------------|
A|--------------------2---------------------3--------------------------------|
E|---------------------------------------------------------------------------|
   and save me?...         If I was falling like a star...    
  
e|---------------------------------------------------------------------------|
B|-------2-------------------2-------------------------2---------------------|
G|------2-------------------2-------------------------2----------------------|
D|-----0-------------------0-------------------------0-----------------------|
A|----2-------------------3-------------------------2------------------------|
E|---------------------------------------------------------------------------|
        Would you be right there to catch me...       If I was dreaming 


e|---------------------------------------------------------------------------|
B|------2------------------2-------------------------------------------------|
G|-----2------------------2--------------------------------------------------|
D|----0------------------0---------------------------------------------------|
A|---3------------------2----------------------------------------------------|
E|---------------------------------------------------------------------------|  
    of your kiss...        Would you look right through me... (aaaaa on the sreets...)






e|---------------------------------------------------------------------------|
B|------3---------------------3-----------------3---------------------3------|
G|-----0---------------------0-----------------0---------------------0-------|
D|----2---------------------2-----------------3---------------------2--------|
A|---2---------------------3-----------------2---------------------3---------|
E|---------------------------------------------------------------------------|
       If my heart was sadder than a song..         would you still  
 
e|---------------------------------------------------------------------------|
B|-----------------3-----------------------3---------------------------------|
G|----------------0-----------------------0----------------------------------|
D|---------------2-----------------------2-----------------------------------|
A|--------------2-----------------------3------------------------------------|
E|---------------------------------------------------------------------------|
   listen...         If my tears fell on you, one by one...
    
  
e|---------------------------------------------------------------------------|
B|-------2-------------------2-----------------------------------------------|
G|------2-------------------2------------------------------------------------|
D|-----0-------------------0-------------------------------------------------|
A|----2-------------------3--------------------------------------------------|
E|---------------------------------------------------------------------------|
        Would you see them glisten... (AAh on the streets I'm ...) 
Tap to rate this tab
# A B C D E F G H I J K L M N O P Q R S T U V W X Y Z