Guitaretab - guitar tabs
Song name
# A B C D E F G H I J K L M N O P Q R S T U V W X Y Z

Alexz Johnson - Waste My Time tab

you should listen to this song to really get it. if you dont have the c.d., go to www.the-n.com  




e-------------------------|
b-------------------------|
g---9--9-------------7----|
d---9--7-------------5----| repeated throughout the verses
a---7--7-------------5----|
e-------------------------|


prechorus:
e------------|
e------------|
b------------|
g---11--9--4-|
d---11--9--4-|
a---9---7--2-|

e------------|
b------------|
g---11--9--4-| 9
d---11--9--4-| 9
a---9---7--2-| 7
e------------|


Archive - J - Alexz Johnson - "Waste My Time" guitar tab and chords // Other versions // Bookmark 
 Print :: Add Comment :: Add To Cart :: Send to a friend! :: Report bad tab :: Total views: 736  

this is basically the tab for the song "Waste My TIme" sang by Jude Harris
(Alexz Johnson) in the new tv show instant star on the-n sorry if the # of repeats is wrong
e-------------------------|
b-------------------------|
g---9--9-------------7----|
d---9--7 (x24?)------5----| repeated throughout the verses
a---7--7-------------5----|
e-------------------------|
      pm......

prechorus:
e------------|
e------------|
b------------|
g---11--9--4-|
d---11--9--4-|
a---9---7--2-|

e------------|
b------------|
g---11--9--4-| 9
d---11--9--4-| 9
a---9---7--2-| 7
e------------|


chorus:
e-------------------------------------------------------------|
b-------------------------------------------------------------|
g---9--9--------4--4----------7---7---------------------------|
d---9--9 (x13)--4--4-(x13)----7---7--(x13)---7---7------------|
a---7--7--------2--2----------5---5--------- 7---7--(x13)-----|
e--------------------------------------------5---5------------|
  

e-------------------------------------------------------------|
b-------------------------------------------------------------|
g---9--9--------4--4----------7---7---------------------------|
d---9--9 (x13)--4--4-(x13)----7---7--(x5)---7---7-------------|
a---7--7--------2--2----------5---5--------- 7---7--(x5)------|
e--------------------------------------------5---5------------|
       
verse2 same as verse1
prechorus the same too
chorus
[ Tab from: http://www.guitaretab.com/a/alexz-johnson/71215.html ]
rap bridge


e-------------- -----------|
b--------------  ----------|
g-----9--99-9--  --6-66-6--|
d-----9--99-9--  --6-66-6--|
a-----7--77-7--  --4-44-4--|
e--------------  ----------|

e-------------- ------|
b--------------  -----|
g-----9--99-9--  --4--|
d-----9--99-9--  --4--|
a-----7--77-7--  --2--|
e--------------  -----|

chorus
 
LYRICS
Friends are telling me I lost my mind 
When I hooked up with you 
Maybe that's true 

Said that I'll wake up one day 
Asking what did I do 
Maybe that's true too 

When I'm with you everything's alright 
All I know is how I feel 
When you're with me 

[Chorus]
Waste my time, waste my time 
Not so sure that I'll be yours 
And baby you could be mine 
It's all about hanging out 
Cause you know how to waste my time 

Nothing like an empty day 
With nowhere to be 
You're right there with me 

Laughing as the world goes by 
How we let it be
Moving way too fast 

Cause when I'm with you I don't really care 
What they all want me to be 
I just want you beside me 

[Chorus]
Waste my time, waste my time 
Not so sure that I'll be yours 
And baby you could be mine 
It's all about hanging out 
Cause you know how to waste my time 

[rap bridge]
Call me Shay on the M-I-C 
When you listenin' to me 
You be listenin' to b bumpin' 
To the rhythm they'll be given 
When we hit em with the beats on the streets 
Don't forget the way we livin', yo 
(Waste my time)
You girl on the other side of the wall 
(Waste my time)
I like the way you move your body, and if you fall
(not so sure that I'll be yours)
I'll be the one that's gonna catch you before you hit the ground 
(Baby you could be mine)
I'm feeling your sound 

It's all about (yeah girl, it's all about) 
Hanging out (you know, we hanging out) 
Cause you know how to waste my time 

[Chorus]
Waste my time (wasting my time) 
Waste my time (yeah, yeah) 
Not so sure that I'll be yours 
But baby you could be mine (you could be mine) 
It's all about (yeah girl, it's all about) 
Hanging out (we hanging out) 
Cause you know how to waste my time (wasting my time) 
Mmm, you know how to waste my time




there you go!!!!! :] ~kyal


 
Related for Waste My Time tab
Waste My Time chords by Alexz Johnson