Song name
# A B C D E F G H I J K L M N O P Q R S T U V W X Y Z

Alexz Johnson - Cause Your Watching Over Me tab

A           D               E4         A           D           E
You lift me up to touch the sky when there's a tear you are my eye
e---------0--0--------------------------------0--0------------2--0---|
b-2--2---------3----3----0---2----2------2------------3---3----------|
g--------------------------------------------------------------------|
d--------------------------------------------------------------------|
a--------------------------------------------------------------------|
e--------------------------------------------------------------------|


A    D                  F#m7     E4      E             A
Everyone I think should know    Where I am you always go
e------0-0---------------------------0--0------------------------|
b-2--2-----3---3----0---2-------2-2--------3---3---0-------------|
g-----------------------------------------------------2----------|
d----------------------------------------------------------------|
a----------------------------------------------------------------|
e----------------------------------------------------------------|

D         A/C#   E         A7      D         A        E    F#m7
I close my eyes I know your here  Open them wide and you appear
e----------2--0--------------------------2----0--------------------|
b-3----2---------2---2---0----2----3--2-----------2---2---0--2-----|
g------------------------------------------------------------------|
d-----------------------------2------------------------------2-----|
a------------------------------------------------------------------|
e------------------------------------------------------------------|

D    E      C#7      F#m7    D           E            F#m  D  E
I am always safe and free  Cause you're watching over me
e---2--0-0--------0----2----------2-----0----0------------------------|
b-3----------3---------------3------------------3--3---2--------------|
g---------------------------------------------------------------------|
d---------------------------------------------------------------------|
a---------------------------------------------------------------------|
e---------------------------------------------------------------------|


A              D               E4     A         D           E
On the biggest cloud up in the sky To a tiny spot upon a fly, yeah
e----------0-----0------------------------0---0---------2--0----------|
b-2-2-----------------3--3--0---2---2--2-----------3-3----------------|
g---------------------------------------------------------------------|
d---------------------------------------------------------------------|
a---------------------------------------------------------------------|
e---------------------------------------------------------------------|


A     D                F#m7  D       E4       E    A
Everywhere I choose to be   You are watching over me
e-------0--0-------------------------0---0--------------------|
b-2--2--------3--3---0--2-----2---2---------3--3-0------------|
g--------------------------------------------------2----------|
d-------------------------------------------------------------|
a-------------------------------------------------------------|
e-------------------------------------------------------------|


D          A/C#   E         A7      D         A        E    F#m7
I close my eyes I know your here Open them wide and you appear
e--------2--0----------------------------2---0----------------------|
b-3-2------------2--2---0----2---3--2------------2---2--0---2-------|
g-------------------------------------------------------------------|
d----------------------------2------------------------------2-------|
a-------------------------------------------------------------------|
e-------------------------------------------------------------------|

D    E      C#7      F#m7    D            E             A
I am always safe and free  Cause you're watching over me
e---2--0-0--------0---2-----------2-----0---0--------------------|
b-3----------3---------------3-------------------3--3--2---------|
g----------------------------------------------------------------|
d----------------------------------------------------------------|
a----------------------------------------------------------------|
e----------------------------------------------------------------|

       F#m7            D          F#m7     E        A
You are shadow, you are light    You take the darkness from the night
e------2---0--------------------------------2-----0-----------------|
b-3-2-----------2----0---2--------3---2----------------2----0-2-2---|
g-------------------------------------------------------------------|
d------------------------2--------------------------------------2---|
a-------------------------------------------------------------------|
e-------------------------------------------------------------------|



D    E      C#7      F#m7  D            E4          F#m7 D E A
I am always safe and free Cause you're watching over me

e---2-0--0--------0----2---------2-----0----0---------------|
b-3---------3---------------3-------------------3--3--2-----|
g-----------------------------------------------------------|
d-----------------------------------------------------------|
a-----------------------------------------------------------|
e-----------------------------------------------------------|


ESPAŅOL:

HOLA! si alguien tiene una duda porfavor comuniquese conmigo a cobi_a12@hotmail.com yo 
la cancion skips y my sweet time el intro me falta un poco y lo mando toda la cancion


INGLES:

HELLO! if somebody has a doubt please I comuniquese with me to cobi_a12@hotmail.com I 
to the song skips and my sweet Time intro I need little to send all the song
Tap to rate this tab
 
# A B C D E F G H I J K L M N O P Q R S T U V W X Y Z