Song name
# A B C D E F G H I J K L M N O P Q R S T U V W X Y Z

Alexz Johnson - Skips tab

If you pick it right this sounds accurate...

e-3-0-0---------0-----3-0-0---------0----|
B-1-----1-----3---3-1-1-----1-----3---3-1|
G----------------------------------------|
D----------------------------------------|
A----------------------------------------|
E----------------------------------------|

e-3-0-0---------0-----3-0-0---------0----|
B-1-----1-----3---3-1-1-----1-----3---3-1|
G----------------------------------------|
D----------------------------------------|
A----------------------------------------|
E----------------------------------------|
     I feel my heart doesn't fit...

e---3-3---------0----|
B-1-----1-----3---3-1|
G-2------------------|
D--------------------|
A--------------------|
E--------------------|
and then...

e-3-0-0---------0-----3-0-0---------0----|
B-1-----1-----3---3-1-1-----1-----3---3-1|
G----------------------------------------|
D----------------------------------------|
A----------------------------------------|
E----------------------------------------|
   I feel my hands don't work...

e----------------|
B-1-1--0-0--1-1--|
G-2-2--0-0--2-2--|
D----------------|
A----------------|
E----------------|
up in...

e-3-0-0---------0-----3-0-0---------0----|
B-1-----1-----3---3-1-1-----1-----3---3-1|
G----------------------------------------|
D----------------------------------------|
A----------------------------------------|
E----------------------------------------|
  Up and down...

e---3-3---------0----|
B-1-----1-----3---3-1|
G-2------------------|
D--------------------|
A--------------------|
E--------------------|
feel you...

e-3-0-0---------0-----3-0-0---------0----|
B-1-----1-----3---3-1-1-----1-----3---3-1|
G----------------------------------------|
D----------------------------------------|
A----------------------------------------|
E----------------------------------------|
Here I am...


  (Am)  (C)  (Am)
e----------------|
B-1-1---0-0--1-1-|
G-2-2---0-0--2-2-|
D----------------|
A----------------|
E----------------|
him in, let me break him in

F                        G
I made a choice, try and make myself invisible
Am
Make sure I can fit in, cuz I'm sick of feeling miserable
F
Hidden by some lies
G
Sacrifice my friendly ties
Am                                                    F
Start it from scratch, won't attack if he walks my way
G                     Am G F
Hear what he has to say

e-3-0-0---------0-----3-0-0---------0----|
B-1-----1-----3---3-1-1-----1-----3---3-1|
G----------------------------------------|
D----------------------------------------|
A----------------------------------------|
E----------------------------------------|

e-3-0-0---------0-----3-0-0---------0----|
B-1-----1-----3---3-1-1-----1-----3---3-1|
G----------------------------------------|
D----------------------------------------|
A----------------------------------------|
E----------------------------------------|
     I feel my heart doesn't fit...

e---3-3---------0----|
B-1-----1-----3---3-1|
G-2------------------|
D--------------------|
A--------------------|
E--------------------|
and then...

e-3-0-0---------0-----3-0-0---------0----|
B-1-----1-----3---3-1-1-----1-----3---3-1|
G----------------------------------------|
D----------------------------------------|
A----------------------------------------|
E----------------------------------------|
   I feel my hands don't work...

e----------------|
B-1-1--0-0--1-1--|
G-2-2--0-0--2-2--|
D----------------|
A----------------|
E----------------|
up in...

F                        G
I made a choice, try and make myself invisible
Am
Make sure I can fit in, cuz I'm sick of feeling miserable
F
Hidden by some lies
G
Sacrifice my friendly ties
Am                                                    F
Start it from scratch, won't attack if he walks my way
G                     Am G F
Hear what he has to say

e-0-0-----3-0-0---------0-----3-0-0---------0----|
B-----1---1-----1-----3---3-1-1-----1-----3---3-1|
G------------------------------------------------|
D------------------------------------------------|
A------------------------------------------------|
E------------------------------------------------|

e-3-0-0---------0-----3-0-0---------0----|
B-1-----1-----3---3-1-1-----1-----3---3-1|
G----------------------------------------|
D----------------------------------------|
A----------------------------------------|
E----------------------------------------|
     I feel my heart doesn't fit...

End on G chord
Tap to rate this tab
 
# A B C D E F G H I J K L M N O P Q R S T U V W X Y Z