Song name
# A B C D E F G H I J K L M N O P Q R S T U V W X Y Z

Alexz Johnson - My Sweet Time tab

e----------------------------------8---10--------------------|
b----------------------------------8---10--------------------|
g-3-3-----------------3-3------------------------------------|
d-3-3--3-5-5-3-5-3----3-3--3-5-5-----------------------------|
a------------------------------------------------------------|
e------------------------------------------------------------|


e-----------------------------------10--8--------------------|
b-----------------------------------10--8--------------------|
g-3-3-----------------3-3------------------------------------|
d-3-3--3-5-5-3-5-3----3-3--3-5-5-----------------------------|
a------------------------------------------------------------|
e------------------------------------------------------------|
Tap to rate this tab
# A B C D E F G H I J K L M N O P Q R S T U V W X Y Z