Song name
# A B C D E F G H I J K L M N O P Q R S T U V W X Y Z

Alexz Johnson - I Could Be You tab

HOLA!! BUENO SAQUE OTRA TABLATURA... PORSUPUESTO DE ALEXZ JOHNSON SI ALGUIEN TIENE UNA
PORFAVOR COMUNIQUESE CONMIGO A cobi_a12@hotmail.com
BUENO SOLO ME QUEDA DECIR QUE PRACTIQUEN ESTA TABLATURA PORQUE ES UN POCO DIFICIL PERO
TANTO ESTOY SACANDO IT COULD BE YOU EN ACUSTICO OTRO DIA LO MANDARE CHAU!

INTRO:

e------------------------------------------------------------------------|
b------------------------------------------------------------------------|
g------------------------------------------------------------------------|
d-9-9-9-9-9-9-9-9--------------------------------------------------------|
a-7-7-7-7-7-7-7-7-9-9-9-9-9-9-9-9--7-7-7-7-7-7-7-7-7-7-7-7-7-7-7-7-------|
e-----------------------7-7-7-7-7-7-7-7--5-5-5-5-5-5-5-5-5-5-5-5-5-5-5-5-|

e------------------------------------------------------------------------|
b------------------------------------------------------------------------|
g------------------------------------------------------------------------|
d-9-9-9-9-9-9-9-9--------------------------------------------------------|
a-7-7-7-7-7-7-7-7-9-9-9-9-9-9-9-9--4-4-4-4-4-4-4-4-7-7-7-7-7-7-7-7-------|
e-----------------------7-7-7-7-7-7-7-7--2-2-2-2-2-2-2-2-5-5-5-5-5-5-5-5-|


You and me ................................

e--------------------------------------------|
b--------------------------------------------|
g--------------------------------------------|
d--------------------------------------------|
a-10-10-10-9-9-9--7-7-7----7-8-7-8-7-8-------|
e--8---8---8-7-7-7--5-5-5--------------------|


e----------------------------------------|
b----------------------------------------|
g----------------------------------------|
d----------------------------------------|
a-10-10-10-9-9-9--7-7-7---6--6--6--------|
e--8---8---8-7-7-7--5-5-5---4--4--4------|


e--------------------------------------------|
b--------------------------------------------|
g--------------------------------------------|
d--------------------------------------------|
a-10-10-10-9-9-9--7-7-7----7-8-7-8-7-8-------|
e--8---8---8-7-7-7--5-5-5--------------------|


e----------------------------------------|
b----------------------------------------|
g----------------------------------------|
d----------------------------------------|
a-10-10-10-9-9-9--7-7-7---6--6--6--------|
e--8---8---8-7-7-7--5-5-5---4--4--4------|


e------------------|
b------------------|
g------------------|
d-3-5-3-5-3-5------|
a------------------|
e----


e------------------------------------------------------------------------|
b------------------------------------------------------------------------|
g------------------------------------------------------------------------|
d-9-9-9-9-9-9-9-9--------------------------------------------------------|
a-7-7-7-7-7-7-7-7-9-9-9-9-9-9-9-9--7-7-7-7-7-7-7-7-7-7-7-7-7-7-7-7-------|
e-----------------------7-7-7-7-7-7-7-7--5-5-5-5-5-5-5-5-5-5-5-5-5-5-5-5-|

e------------------------------------------------------------------------|
b------------------------------------------------------------------------|
g------------------------------------------------------------------------|
d-9-9-9-9-9-9-9-9--------------------------------------------------------|
a-7-7-7-7-7-7-7-7-9-9-9-9-9-9-9-9--4-4-4-4-4-4-4-4-7-7-7-7-7-7-7-7-------|
e-----------------------7-7-7-7-7-7-7-7--2-2-2-2-2-2-2-2-5-5-5-5-5-5-5-5-|

e------------------------------------------------------------------------|
b------------------------------------------------------------------------|
g------------------------------------------------------------------------|
d-9-9-9-9-9-9-9-9--------------------------------------------------------|
a-7-7-7-7-7-7-7-7-9-9-9-9-9-9-9-9--7-7-7-7-7-7-7-7-7-7-7-7-7-7-7-7-------|
e-----------------------7-7-7-7-7-7-7-7--5-5-5-5-5-5-5-5-5-5-5-5-5-5-5-5-|


e----------------------------|
b----------------------------|
g----------------------------|
d----------------------------|
a-------2-0------2-0---------|
e-1-3------1--3--------------|

e------------------|
b------------------|
g------------------|
d-3-3-3-3-3-3------|

Show me who ...................................

e--------------------------------------------|
b--------------------------------------------|
g--------------------------------------------|
d--------------------------------------------|
a-10-10-10-9-9-9--7-7-7----7-8-7-8-7-8-------|
e--8---8---8-7-7-7--5-5-5--------------------|


e----------------------------------------|
b----------------------------------------|
g----------------------------------------|
d----------------------------------------|
a-10-10-10-9-9-9--7-7-7---6--6--6--------|
e--8---8---8-7-7-7--5-5-5---4--4--4------|


e--------------------------------------------|
b--------------------------------------------|
g--------------------------------------------|
d--------------------------------------------|
a-10-10-10-9-9-9--7-7-7----7-8-7-8-7-8-------|
e--8---8---8-7-7-7--5-5-5--------------------|


e----------------------------------------|
b----------------------------------------|
g----------------------------------------|
d----------------------------------------|
a-10-10-10-9-9-9--7-7-7---6--6--6--------|
e--8---8---8-7-7-7--5-5-5---4--4--4------|


e------------------|
b------------------|
g------------------|
d-3-5-3-5-3-5------|
a------------------|
e----


e------------------------------------------------------------------------|
b------------------------------------------------------------------------|
g------------------------------------------------------------------------|
d-9-9-9-9-9-9-9-9--------------------------------------------------------|
a-7-7-7-7-7-7-7-7-9-9-9-9-9-9-9-9--7-7-7-7-7-7-7-7-7-7-7-7-7-7-7-7-------|
e-----------------------7-7-7-7-7-7-7-7--5-5-5-5-5-5-5-5-5-5-5-5-5-5-5-5-|

e------------------------------------------------------------------------|
b------------------------------------------------------------------------|
g------------------------------------------------------------------------|
d-9-9-9-9-9-9-9-9--------------------------------------------------------|
a-7-7-7-7-7-7-7-7-9-9-9-9-9-9-9-9--4-4-4-4-4-4-4-4-7-7-7-7-7-7-7-7-------|
e-----------------------7-7-7-7-7-7-7-7--2-2-2-2-2-2-2-2-5-5-5-5-5-5-5-5-|

e------------------------------------------------------------------------|
b------------------------------------------------------------------------|
g------------------------------------------------------------------------|
d-9-9-9-9-9-9-9-9--------------------------------------------------------|
a-7-7-7-7-7-7-7-7-9-9-9-9-9-9-9-9--7-7-7-7-7-7-7-7-7-7-7-7-7-7-7-7-------|
e-----------------------7-7-7-7-7-7-7-7--5-5-5-5-5-5-5-5-5-5-5-5-5-5-5-5-|


e----------------------------|
b----------------------------|
g----------------------------|
d----------------------------|
a-------2-0------2-0---------|
e-1-3------1--3--------------|


e---------------------------------------------------------------------------|
b---------------------------------------------------------------------------|
g---------------------------------------------------------------------------|
D|-----------------4-4-4-5-5-5-4-5-5-7-7-7-7-7-7-7-5-5-5-5-5-5-5------------|
A|5-5-5-7-7-7---------------------------------------------------------------|


e------------------------------------------------------------------------|
b------------------------------------------------------------------------|
g------------------------------------------------------------------------|
d-9-9-9-9-9-9-9-9--------------------------------------------------------|
a-7-7-7-7-7-7-7-7-9-9-9-9-9-9-9-9--7-7-7-7-7-7-7-7-7-7-7-7-7-7-7-7-------|
e-----------------------7-7-7-7-7-7-7-7--5-5-5-5-5-5-5-5-5-5-5-5-5-5-5-5-|

e------------------------------------------------------------------------|
b------------------------------------------------------------------------|
g------------------------------------------------------------------------|
d-9-9-9-9-9-9-9-9--------------------------------------------------------|
a-7-7-7-7-7-7-7-7-9-9-9-9-9-9-9-9--4-4-4-4-4-4-4-4-7-7-7-7-7-7-7-7-------|
e-----------------------7-7-7-7-7-7-7-7--2-2-2-2-2-2-2-2-5-5-5-5-5-5-5-5-|

e------------------------------------------------------------------------|
b------------------------------------------------------------------------|
g------------------------------------------------------------------------|
d-9-9-9-9-9-9-9-9--------------------------------------------------------|
a-7-7-7-7-7-7-7-7-9-9-9-9-9-9-9-9--7-7-7-7-7-7-7-7-7-7-7-7-7-7-7-7-------|
e-----------------------7-7-7-7-7-7-7-7--5-5-5-5-5-5-5-5-5-5-5-5-5-5-5-5-|


e----------------------------|
b----------------------------|
g----------------------------|
d----------------------------|
a-------2-0------2-0---------|
e-1-3------1--3--------------|

e------------------------------------------------------------------------|
b------------------------------------------------------------------------|
g------------------------------------------------------------------------|
d-9-9-9-9-9-9-9-9--------------------------------------------------------|
a-7-7-7-7-7-7-7-7-9-9-9-9-9-9-9-9--7-7-7-7-7-7-7-7-7-7-7-7-7-7-7-7-------|
e-----------------------7-7-7-7-7-7-7-7--5-5-5-5-5-5-5-5-5-5-5-5-5-5-5-5-|

e------------------------------------------------------------------------|
b------------------------------------------------------------------------|
g------------------------------------------------------------------------|
d-9-9-9-9-9-9-9-9--------------------------------------------------------|
a-7-7-7-7-7-7-7-7-9-9-9-9-9-9-9-9--4-4-4-4-4-4-4-4-7-7-7-7-7-7-7-7-------|
e-----------------------7-7-7-7-7-7-7-7--2-2-2-2-2-2-2-2-5-5-5-5-5-5-5-5-|

e------------------------------------------------------------------------|
b------------------------------------------------------------------------|
g------------------------------------------------------------------------|
d-9-9-9-9-9-9-9-9--------------------------------------------------------|
a-7-7-7-7-7-7-7-7-9-9-9-9-9-9-9-9--7-7-7-7-7-7-7-7-7-7-7-7-7-7-7-7-------|
e-----------------------7-7-7-7-7-7-7-7--5-5-5-5-5-5-5-5-5-5-5-5-5-5-5-5-|


e----------------------------|
b----------------------------|
g----------------------------|
d----------------------------|
a-------2-0------2-0---------|
e-1-3------1--3--------------|
Tap to rate this tab
# A B C D E F G H I J K L M N O P Q R S T U V W X Y Z