Song name
# A B C D E F G H I J K L M N O P Q R S T U V W X Y Z

Alf Clausen - Can I Borrow A Feeling tab

Help us improve GuitareTab! Take a short survey!
-------------------------------------------------------------------------------
     Can I Borrow A Feeling - the Simpsons (Performed by Kirk Vanhouten)
-------------------------------------------------------------------------------
Tabbed by: Jeese H (Gunba)
Email: gubna275@hotmail.com

Tuning: Normal
 |++++++++++++++++++++++++ Intro ++++++++++++++++++++++++|+++++++++++++++++++
e|-----1---------------------|------1--------------------|-----1--0-1-------|
B|---1---3---------1---------|----1---3---------1--------|---1----------3---|
G|-2----------3--------0---2-|--2----------3-------------|-2---------------3|
D|---------------------------|---------------------------|------------------|
A|---------------------------|---------------------------|------------------|
E|---------------------------|---------------------------|------------------|

 +++++++++++++++++ Verse +++++++++++++++++++++++ Verse +++++++++++++++++++++|
e|-----1--0-1-------------|------1--0-1------------|-----1------------------|
B|---1--------3-----1-----|----1--------3----------|---1---3---1------------|
G|-2--------------3-------|--2-------------3-------|-2-------3-----0-2------|
D|------------------------|------------------------|------------------------|
A|------------------------|------------------------|------------------------|
E|------------------------|------------------------|------------------------|

 |++++++++++++++++++++++++ Outro ++++++++++++++++++++++++|
e|-----1---------------------|------1--------------------|------------------|
B|---1---3---------1---------|----1---3---------1--------|------------------|
G|-2----------3--------0---2-|--2----------3-------------|------------------|
D|---------------------------|---------------------------|------------------|
A|---------------------------|---------------------------|------------------|
E|---------------------------|---------------------------|------------------|
Related for Can I Borrow A Feeling tab