Song name
# A B C D E F G H I J K L M N O P Q R S T U V W X Y Z

Alf Poier - Kind Im Regen tab

Highlighted       Show chord diagrams
ALF POIER - Kind im Regen
Transcribed by phight

Basic Strumming: (some variations easy to figure out)
E----------x------|
B--------x---x----|
G------x-------x--|
D-----------------|
A-----------------|
E-x---------------|


Chords: (2x: B E F# B   2x: F# F# B F#)
	B			E			F#
E-------7-----------------------0-----------------------2---------------|
B-------7-----------------------0-----------------------2---------------|
G-------8-----------------------1-----------------------3---------------|
D-------9-----------------------2-----------------------4---------------|
A-------9-----------------------2-----------------------4---------------|
E-------7-----------------------0-----------------------2---------------|


B	E        F#		 B
Kind im Regen sog mir was is den los
B	  E       F#                B
kummst zu mir her setzt di auf mein Schoß
F# (2x)		  B	    F#
bist im Leben nur gschlogen worn
F# (2x)             	 B     F#
wünscht dir oft du warst nie geborn
Tap to rate this tab
# A B C D E F G H I J K L M N O P Q R S T U V W X Y Z