Song name
# A B C D E F G H I J K L M N O P Q R S T U V W X Y Z

Alfa Rococo - Les Journes De Pluie tab

Intro

e|---12------------------12---------------------------------------15--13--12h13p12\--|
B|-------------13-------------13--------13------------13-----------------------------|
G|--------14-------14-------------14--------12/14-------14---------------------------|
D|-----------------------------------------------------------------------------------|
A|-----------------------------------------------------------------------------------|
E|-----------------------------------------------------------------------------------|
									               /
e|--12------------------12----------------------------------------------------------|
B|------------13-------------13-------13----------13-------15--13--12h13p12---------|
G|-------14-------14-------------14-------12/14-------14----------------------------|
D|----------------------------------------------------------------------------------|
A|----------------------------------------------------------------------------------|
E|----------------------------------------------------------------------------------| x3

e|---------------------|-------------------|------------------|------------------|
B|---------------------|-------------------|------------------|------------------|
G|--12/14-------------|--------------------|------------------|------------------|
D|---------------------|-------------------|------------------|------------------|
A|---------------------|-------------------|------------------|------------------|
E|---------------------|-------------------|------------------|------------------|

Passe

e|---12------------------12---------------------------------------15--13--12h13p12----|
B|-------------13-------------13--------13----------13--------------------------------|
G|--------14-------14-------------14--------12/14-------14----------------------------|
D|------------------------------------------------------------------------------------|
A|------------------------------------------------------------------------------------|
E|------------------------------------------------------------------------------------|

e|--12------------------12------------------------------------------------------------|
B|------------13-------------13-------13----------13-------15--13--12h13p12-----------|
G|-------14-------14-------------14-------12/14-------14------------------------------|
D|----------------------------------------------------------------------------12/14---|
A|------------------------------------------------------------------------------------|
E|------------------------------------------------------------------------------------|

e|----------------------|-----------------|-------------------|----------------------|
B|----------------------|-----------------|-------------------|----------------------|
G|----------------------|-----------------|-------------------|----------------------|
D|----------------------|-----------------|-------------------|----------------------|
A|----------------------|-----------------|-------------------|----------------------|
E|----------------------|-----------------|-------------------|----------------------|

Pre-chorus

e|---------------------------------------------------------------|
B|---------------------------------------------------------------|
G|------------------------12/14--12------------------------------|
D|--14--12--14--15-----------------------------------------------|
A|---------------------------------------------------------------|
E|---------------------------------------------------------------|

Chorus

e|-----------------------------------------------------------------------------------|
B|-----------------------------------------------------------------------------------|
G|-----------------------------------------------------------------------------------|
D|-------------14---------------------14----------------------12---------------------|
A|--14--15-----------14----14--15---------14----14--15-------------------------------|
E|-----------------------------------------------------------------------------------|

Passe

e|---12------------------12---------------------------------------15--13--12h13p12\---|
B|-------------13-------------13--------13----------13--------------------------------|
G|--------14-------14-------------14--------12/14-------14----------------------------|
D|------------------------------------------------------------------------------------|
A|------------------------------------------------------------------------------------|
E|------------------------------------------------------------------------------------|
									              |
e|--12------------------12------------------------------------------------------------|
B|------------13-------------13-------13----------13-------15--13--12h13p12-----------|
G|-------14-------14-------------14-------12/14-------14------------------------------| /
D|------------------------------------------------------------------------------------|
A|------------------------------------------------------------------------------------|
E|------------------------------------------------------------------------------------| x2

e|--------------------------------|
B|--------------------------------|
G|--12/14-------------------------|
D|--------------------------------|
A|--------------------------------|
E|--------------------------------|


Refrain 2

e|--------15------15--------12-----------15------15/17-------------15----15-----12----|
B|--10/13-----13-------13--------10/13-------13--------13--10/13------13----13--------|
G|------------------------------------------------------------------------------------|
D|------------------------------------------------------------------------------------|
A|------------------------------------------------------------------------------------|
E|------------------------------------------------------------------------------------|

e|-------------------------------------------------------------------------------|
B|--15--13--12----13--13/15----13--13/15-----------------------------------------|
G|-------------------------------------------------------------------------------|
D|-------------------------------------------------------------------------------|
A|-------------------------------------------------------------------------------|
E|-------------------------------------------------------------------------------|

Solo

e|----------------------------------------------------------------------------------|
B|----------------------------------------------------------------------------------|
G|--12/14--14--12--12/14--------------------------12--------------------------------|
D|-------------------------------12--14--15--15--------14----12---------------------|
A|-------------------------------------------------------------------15-------------|
E|----------------------------------------------------------------------------------|

e|------------------------------------------------------------------------|
B|------------------------------------------------------------------------|
G|--12/14--14--12--12/14---------------------12---------------------------|
D|--------------------------12--14--15--15--------14----------------------|
A|------------------------------------------------------------------------|
E|------------------------------------------------------------------------|

e|-----------------------------------------------------------------------------------|
B|-----------------------------------------------------------------------------------|
G|--12/14--14--12--12/14-----------------------12------------------------------------|
D|----------------------------12--14--15--15--------14----12-------------------------|
A|------------------------------------------------------------------15---------------|
E|-----------------------------------------------------------------------------------|

e|-----------------------------------------------------------------------------------|
B|-----------------------------------------------------------------------------------|
G|--12/14--14--12--12/14--------------------------12/14------------------------------|
D|--------------------------------14--12--14--15-------------------------------------|
A|-----------------------------------------------------------------------------------|
E|-----------------------------------------------------------------------------------|

Refrain 3

e|--------15------15--------12-----------15------15/17-------------15----15-----12---|
B|--10/13-----13-------13--------10/13-------13--------13--10/13------13----13-------|
G|-----------------------------------------------------------------------------------|
D|-----------------------------------------------------------------------------------|
A|-----------------------------------------------------------------------------------|
E|-----------------------------------------------------------------------------------|

e|-------------------------------------------------------------------------------|
B|--15--13--12----13--13/15----13--13/15-----------------------------------------|
G|-------------------------------------------------------------------------------|
D|-------------------------------------------------------------------------------|
A|-------------------------------------------------------------------------------|
E|-------------------------------------------------------------------------------|
Outro

e|---12------------------12---------------------------------------15--13--12h13p12\---|
B|-------------13-------------13--------13------------13------------------------------|
G|--------14-------14-------------14--------12/14-------14----------------------------|
D|------------------------------------------------------------------------------------|
A|------------------------------------------------------------------------------------|
E|------------------------------------------------------------------------------------|
									               /
e|--12------------------12-----------------------------------------------------------|
B|------------13-------------13-------13------------13-------15--13--12h13p12--------| /
G|-------14-------14-------------14-------12/14---------14---------------------------|
D|-----------------------------------------------------------------------------------|
A|-----------------------------------------------------------------------------------| /
E|-----------------------------------------------------------------------------------| x2

e|----------------------------|
B|----------------------------|
G|--12/14---------------------|
D|----------------------------|
A|----------------------------|
E|----------------------------|
Tap to rate this tab
# A B C D E F G H I J K L M N O P Q R S T U V W X Y Z