Song name
# A B C D E F G H I J K L M N O P Q R S T U V W X Y Z

Alfie - Hey Mole tab

Help us improve GuitareTab! Take a short survey!
-------------------------------------------------------------------------------
			     Hey Mole - Alfie
-------------------------------------------------------------------------------
From the album "Do You Imagine Things?"

Use open chords.
Intro:  E

 E
 A mole burrows into a marrow
 E
 Sleeps all alone, until tomorrow

 E              A
 Who'll set you free?
 A          E
 Who'll let you be?
 E            A
 A mole can't see
 A           E
 He'll just dig deep

  With distortion
e|----------------------------------------------------------------------------|
B|----------------------------------------------------------------------------|
G|----------------------------------------------------------------------------|
D|--------------------------11-9-----9-------------------------11-9----9------|
A|-2/11---11-9---9----9---9-------12---12-11--11-9--9----9---9------12---12-11|
E|-----------------12---------------------------------12----------------------|

 E
 "Hey mole below" whistled the sparrow,
 E
 "Is that your home? You really are a funny fellow"

 E          A
 "Come with me
 A    E
 I am so sweet.
 E            A
 Between your ground and my tree
 A         E
 We'll be complete."

 Distortion
e|----------------------------------------------------------------------------|
B|----------------------------------------------------------------------------|
G|----------------------------------------------------------------------------|
D|--------------------------11-9-----9-------------------------11-9----9------|
A|-2/11---11-9---9----9---9-------12---12-11--11-9--9----9---9------12---12-11|
E|-----------------12---------------------------------12----------------------|

 (Continue riff over lyrics.)

 If you've ever been consoled, you'll know what's happened to this mole.

 If you've ever been set free, you know what all this means to me.

 If you've never seen the sun, and never warmed to anyone,

 Dig your way out of the earth, get out into the universe.

e|----------------------------------------------------------------------------|
B|----------------------------------------------------------------------------|
G|----------------------------------------------------------------------------|
D|--------------------------11-9-----9-------------------------11-9----9------|
A|-2/11---11-9---9----9---9-------12---12-11--11-9--9----9---9------12---12-11|
E|-----------------12---------------------------------12----------------------|

  Repeat and let last note ring to end.

Alfie were a signed band (to Twisted Nerve then Regal/Parlophone). They have now split
and their website is now down, but their myspace is still running:
http://www.myspace.com/52408105
Related for Hey Mole tab