Song name
# A B C D E F G H I J K L M N O P Q R S T U V W X Y Z

Alfredo Keil - Hino De Portugal tab

Achei que era util por aqui a tablatura do hino de Portugal. Pode servir de base 
para solos malucos deste hino. A partir daqui podem inventar mil e uma versoes.

Tuning: standard

e|---------------------------------------------------------------------------|
B|------------6-----6--------------------------6--8--------------------------|
G|---6-----------8----8--6--5--------5----7-8-------8------------------------|
D|------8--6-------------------6--8------------------------------------------|
A|---------------------------------------------------------------------------|
E|---------------------------------------------------------------------------|

e|---------------------------------------------------------------------------|
B|-----8--11--8--------------------------------------------------------------|
G|--8------------8--6-6--5---8--5------------5--8----------------------------|
D|---------------------------------6---6--8-------8--------------------------|
A|---------------------------------------------------------------------------|
E|---------------------------------------------------------------------------|

e|---------------------------------------------------------------------------|
B|-----------------------------9---------------------------------------------|
G|------5-------6--8--5-5---8-----8--11--9--8--------------------------------|
D|---8-----6-6--------------------------------8------------------------------|
A|---------------------------------------------------------------------------|
E|---------------------------------------------------------------------------|

e|---------------------------------------------------------------------------|
B|---------------------------------------------------------------------------|
G|---6-----8--8--6---------6-----8--8--6-----8-------------------------------|
D|------9----------9--8------9------------9----------------------------------|
A|---------------------------------------------------------------------------|
E|---------------------------------------------------------------------------|

e|---------------------------------------------------------------------------|
B|------9--8----------------------------------------9--8---------------------|
G|---8------------10--8--------5-5--8--5----------8---------10--8------------|
D|------------10---------6--8------------8--------------10-------------------|
A|---------------------------------------------------------------------------|
E|---------------------------------------------------------------------------|

e|----------8--8-------------------------------------------------------------|
B|---9--11--------11--11--9------------6--6--------9-------------------------|
G|----------------------------5--6--8--------8--8----------------------------|
D|---------------------------------------------------------------------------|
A|---------------------------------------------------------------------------|
E|---------------------------------------------------------------------------|
Tap to rate this tab
# A B C D E F G H I J K L M N O P Q R S T U V W X Y Z