Song name
# A B C D E F G H I J K L M N O P Q R S T U V W X Y Z

Alghazanth - When The Spirits Dance In Grief tab

-------------------------------------------------------------------------------
		When The Spirits Dance In Grief - Alghazanth
-------------------------------------------------------------------------------
Album: Thy Aeons Envenomed Sanity
Tabbed by: HorGrath
Email: horgrath@hotmail.com

Tuning: E Standard

Listen the song for timing and riff playing times etc.
Very emotional song from Finnish Alghazanth.
http://www.alghazanth.com


Guitar 1
Main riff1
e|-------------------------------------------------------------------------|
B|-------------------------------------------------------------------------|
G|-------------------------------------------------------------------------|
D|---7-7-7-7--7-7-7-7--8-8-8-8--8-8----------------------------------------|
A|---5-5-5-5--8-8-8-8--8-8-8-8--7-7-7-10-8---------------------------------|
E|-------------------------------------------------------------------------|

Guitar 1
Main riff2
e|-------------------------------------------------------------------------|
B|-------------------------------------------------------------------------|
G|-------------------------------------------------------------------------|
D|---7-7-7-7--7-7-7-7--8-8-8-8--8-8----------------------------------------|
A|---5-5-5-5--8-8-8-8--8-8-8-8--7-7-7-8-10---------------------------------|
E|-------------------------------------------------------------------------|

Guitar 2 with Guitar 1
e|-------------------------------------------------------------------------|
B|-------------------------------------------------------------------------|
G|-------------------------------------------------------------------------|
D|------------------------------5------------------------------------------|
A|---5-7-5-7-5-7-5-7--8-7-8-7-8---8-7--------------------------------------|
E|-------------------------------------------------------------------------|

Guitar 2 with Guitar 1
e|-------------------------------------------------------------------------|
B|-------------------------------------------------------------------------|
G|-------------------------------------------------------------------------|
D|------------------------------5-7-5--------------------------------------|
A|---5-7-5-7-5-7-5-7--8-7-8-7-8-------8-7----------------------------------|
E|-------------------------------------------------------------------------|

Guitar 2 with Guitar 1
e|-------------------------------------------------------------------------|
B|-------------------------------------------------------------------------|
G|-------------------------------------------------------------------------|
D|---------5---5-7-5---5------------5---5-7-8------------------------------|
A|---5-7-8---8-------8---8-7-5--7-8---8------------------------------------|
E|-------------------------------------------------------------------------|




************************************

| /   slide up
| \   slide down
| h   hammer-on
| p   pull-off
| ~   vibrato
| +   harmonic
| x   Mute note
| b   Bend
| pb  Pre-bend
| br  Bend release
| pbr Pre-bend release
| brb Bend release bend

************************************
Tap to rate this tab
 
# A B C D E F G H I J K L M N O P Q R S T U V W X Y Z