Song name
# A B C D E F G H I J K L M N O P Q R S T U V W X Y Z

Ali Azmat - Mein tab

Mein Guitar tab
Artist: Deftones, Saturday night wrists

Probably the only correct version of mein you will find, sadly.
One of my favorite songs on the album, just for the continuing rhythm
Usually carpenter plays it on a 7 string, but this is tabbed for 6 strings so the chorus 
perfect, and I prefer not to drop down to many steps

Drop D and half a step down

Intro

|---------------------------------------------|
|------------------------4-4-4-4-4-4-4-4------|
|---7-7-7-7-7-7-7-7--3-3-3-3-3-3-3-3----------|
|---5-5-5-5-5-5-5-5--4-4-4-4-4-4-4-4----------|
|---6-6-6-6-6-6-6-6--2-2-2-2-2-2-2-2----------|
|---------------------------------------------|

Verse

|-------------------------------------------------------|
|-------------------------------------------------------|
|---10-10-10-10---5-5-5-5---4-4-4-4-4-4-4-4-------------|
|---11-11-11-11---6-6-6-6---1-1-1-1-1-1-1-1-------------|
|---9---9---9--9----4-4-4-4---2-2-2-2-2-2-2-2-----------|
|-------------------------------------------------------|


Chorus
|-------------------------------------------------------------------------|
|-------------------------------------------------------------------------|
|-------------------------------------------------------------------------|
|-0-0-0-4-4-9-9--4-4-4-4-4-4-4-4--0-0-0-4-4-9-9-4-1-1-1-1-1-1-1-1---------| x2
|-0-0-0-2-2-9-9--4-4-4-4-4-4-4-4--0-0-0-2-2-9-9-4-1-1-1-1-1-1-1-1---------|
|-0-0-0-0-0-9-9--4-4-4-4-4-4-4-4--0-0-0-0-0-9-9-4-1-1-1-1-1-1-1-1---------|
Tap to rate this tab
 
# A B C D E F G H I J K L M N O P Q R S T U V W X Y Z