Song name
# A B C D E F G H I J K L M N O P Q R S T U V W X Y Z

Ali Farka Toure - Kala tab

Hi, that's an approach of the gimmik played by ali farka toure in the song "Kala" 
with Toumani Diabaté on the Kora.

E|------0---------------0----------1------1------1---------|
B|----1---------------1----1-----1------1------1-----1-0---|
G|--0---------------0--------0-2------2------2-------2-----|
D|---------2------------2----------3---------------3-------|
A|-------------3----3----------0---------------------------|
E|---------------------------------------------------------|

E|------0---------------0------------1-------1------1------|
B|----1---------------1----1-----0h1------1------1-----1-0-|
G|--0---------------0--------0-2--------2------2-------2---|
D|---------2------------2------------3---------------3-----|
A|-------------3----3----------0---------------------------|
E|---------------------------------------------------------|

and repeat with little variations ...
Tap to rate this tab
 
# A B C D E F G H I J K L M N O P Q R S T U V W X Y Z