Song name
# A B C D E F G H I J K L M N O P Q R S T U V W X Y Z

Alice Cooper - Raped And Freezin Live tab

Band: Alice Cooper
Song: Raped and Freezin' (Live)
Album: Billion Dollar Babies
Year: 1973
Tabbed by DoteStudios
Email is manbearpigisreal@gmail.com

Keys
b = bend
r = release
\ = slide up neck
/ = slide down neck
h = hammer-on
p = pull-off
~ = hold note
w = whammy bar
v = vibrato
*another thing is that in the solo I wrote 9b10~~10, which means bend the 9th fret till 
sounds like the 10th, then while it’s in the bend strum the string again

“This next song is dirty, you’ll love it”
Lead Guitar (Glen Buxton)
E-x-x-x-x-x-x-x-|
B-x-x-x-x-x-x-x-|
G-x-x-x-x-x-x-x-| (many times)
D-x-x-x-x-x-x-x-|
A-x-x-x-x-x-x-x-|
E-x-x-x-x-x-x-x-|

Rhythm guitar comes in after 20 seconds…
Rhythm Guitar (Michael Bruce)
E--------x-x-x-x-x------------x-x-x-x-x-x------------|
B--------x-x-x-x-x------------x-x-x-x-x-x------------|
G-7------x-x-x-x-x-7-7-7------x-x-x-x-x-x-7-7-7------|
D-7--3-5-x-x-x-x-x-7-7-7--3-5-x-x-x-x-x-x-7-7-7--3-5-|
A-5--3-5-x-x-x-x-x-5-5-5--3-5-x-x-x-x-x-x-5-5-5--3-5-|
E----1-3-x-x-x-x-x--------1-3-x-x-x-x-x-x--------1-3-|

Then lead guitar does a short riff…
Lead Guitar
E------------------------------17b19-17b19-17-15----15----15----15----|
B-17b19-17b19~~~19r17-15-17-15-------------------17-17b18-17b18-17b19-|
G---------------------------------------------------------------------|
D---------------------------------------------------------------------|
A---------------------------------------------------------------------|
E---------------------------------------------------------------------|

E-15----15--------------------------------------|
B-17b19-17b19-(it is supposed to be a slow bend)|
G-----------------------------------------------|
D-----------------------------------------------|
A-----------------------------------------------|
E-----------------------------------------------|

Rhythm Guitar
E-----------------|
B-----------------|
G-7-7-7-----------| 2x
D-7-7-7--3-5--5-7-|
A-5-5-5--3-5--5-7-|
E--------1-3--3-5-|
“Ya, finally got a ride, some old broad down from Santa Fe.
She was a real go-getter.
She drawled so sweetly, "I think, child, that things'll get better."
Lead and Rhythm Guitar
E---------------------------------------------|
B---------------------------------------------|
G-7----------7----------7----------7----------|
D-7--3-5--7--7--3-5--7--7--3-5--7--7--3-5--6--|
A-5--3-5--7--5--3-5--7--5--3-5--7--5--3-5--6--|
E----1-3--5-----1-3--5-----1-3--5-----1-3--4--|

“We pulled off the highway, night black as a widow.
"Yes, I read the Bible," she said, "I wanna know of you."
Lead Guitar (Glen Buxton)
E---------------------------------------------------------------------|
B-------------5---------------------------8---------------------------|
G-7-5---------7b9~~---7-5-----------7h8h9---9-8-7---------7-5---------|
D-----7-5-7-7-------------7-5-7-7----^------------7-10-7------7-5-7-7-|
A------------------------------------|--------------------------------|
E------------------------------------|--------------------------------|
			            (play the riff above very fast)

E------------------------7-|
B---------------7------7---|
G-------5-----7------7-----|
D---------7/9------9-------|
A-5-6-7--------------------|
E--------------------------|

Rhythm Guitar (Michael Bruce)
E----------------------|
B----------------------|
G-----------------5----| 3x
D-7--7-7~~7---------7--|
A-7--7-7~~7-5-6-7------|
E-5--5-5~~5------------|

“Baby
Hey, I think I've got a live one
Hey, I think I've got a live one
Hey, I think I've got a live one
Hey, yeah yeah yeah yeah yeah (I think I've got a live one)”
Lead and Rhythm Guitar
E--------------2-2-----|
B-7--7--7-7----3-3-----|
G-7--7--7-7-2--2-2-----| 4x
D-7--7--7-7-2--0-0-5-7-|
A-5--5--5-5-0------5-7-|
E------------------3-5-|

Lead and Rhythm Guitar
E-----------------|
B-----------------|
G-7-7-7-----------| 2x
D-7-7-7--3-5--5-7-|
A-5-5-5--3-5--5-7-|
E--------1-3--3-5-|

“Felt like I was hit by a diesel or a greyhound bus.
She was no baby-sitter.
"Get up, sugar, never thought you'd be a quitter."
Lead and Rhythm Guitar
E---------------------------------------------------------------------|
B---------------------------------------------------------------------|
G-7-7-7------------7-7-7------------7-7-7------------7-7-7------------|
D-7-7-7--3-5--5-7--7-7-7--3-5--5-7--7-7-7--3-5—-5-7--7-7-7--3-5--5-7--|
A-5-5-5--3-5--5-7--5-5-5--3-5--5-7--5-5-5--3-5--5-7--5-5-5--3-5--5-7--|
E--------1-3--3-5---------1-3--3-5---------1-3--3-5---------1-3--3-5--|

E----------------------------------|
B----------------------------------|
G-7-7-7------------7-7-7-----------|
D-7-7-7--3-5--5-7--7-7-7--3-5--6---|
A-5-5-5--3-5--5-7--5-5-5--3-5--6---|
E--------1-3--3-5---------1-3--4---|

“I opened the back door, she was greedy.
I ran through the desert, she was chasin'.
No time to get dressed, so I was naked, stranded in Chihuahua, Mexico.”
Lead Guitar
E------------------------------------------------------------------|
B------------------------------------------------------------------|
G-7-5---------------5----7-5--------------5----7-5---------------5-|
D-----7-5-7-7---------7------7-5-7-7--------7------7-5-7-7---------|
A-------------5-6-7-----------------5-6-7-----------------5-6-7----|
E------------------------------------------------------------------|

E----------------7-|
B-------7------7---|
G-----7------7-----|
D-7/9------9-------|
A------------------|
E------------------|

Rhythm Guitar
E----------------------|
B----------------------|
G-----------------5----| 3x
D-7--7-7~~7---------7--|
A-7--7-7~~7-5-6-7------|
E-5--5-5~~5------------|

“Hey, I think I've got a live one
Hey, I think I've got a live one
Hey, oh, I've got a live one
Hey, yeah I've got a live one
Lead and Rhythm Guitar
E--------------2-2-----|
B-7--7--7-7----3-3-----|
G-7--7--7-7-2--2-2-----| 4x
D-7--7--7-7-2--0-0-5-7-|
A-5--5--5-5-0------5-7-|
E------------------3-5-|

Solo 1
Lead Guitar (Glen Buxton’s/Lead Guitar’s solo)
E--------------------------------------------------------------------|
B----------------7-10-7----------------------------------10b12-10b12-|
G---------7--9-7--------7-9--7---------------10--9--7----------------|
D-----7-9----------------------9--7------7-9----------9--------------|
A-7-9--------------------------------7-9-----------------------------|
E--------------------------------------------------------------------|

E----7------------------------------------------------------|
B-10---10-7--10---------------------------------------------|
G---------------9-7-9-7----------7----7--10--10-9--7---9----|
D-----------------------9------7---9-----------------9---9\-|
A--------------------------7-9------------------------------|
E-----------------------------------------------------------|

Rhythm Guitar
E---------------------------------------------------------------------|
B---------------------------------------------------------------------|
G-7-7-7------------7-7-7------------7-7-7------------7-7-7------------|
D-7-7-7--3-5--5-7--7-7-7--3-5--5-7--7-7-7--3-5—-5-7--7-7-7--3-5--5-7--|
A-5-5-5--3-5--5-7--5-5-5--3-5--5-7--5-5-5--3-5--5-7--5-5-5--3-5--5-7--|
E--------1-3--3-5---------1-3--3-5---------1-3--3-5---------1-3--3-5--|

E----------------------------------|
B----------------------------------|
G-7-7-7------------7-7-7-----------|
D-7-7-7--3-5--5-7--7-7-7--3-5--6---|
A-5-5-5--3-5--5-7--5-5-5--3-5--6---|
E--------1-3--3-5---------1-3--4---|

Solo 2 (Michael Bruce’s/Rhythm Guitar’s solo)
Lead Guitar
E----------------------|
B----------------------|
G-----------------5----| 3x
D-7--7-7~~7---------7--|
A-7--7-7~~7-5-6-7------|
E-5--5-5~~5------------|

Rhythm Guitar
E----12b14~~14r12-11-10-------------------------------------------------|
B-10--------------------8-11-10--7-10-8-------------7-------------------|
G----------------------------------------9-12-11--7---------------------|
D-----------------------------------------------------9b11r9--7-6-5-----|
A-----------------------------------------------------------------------|
E-----------------------------------------------------------------------|

E-------------------19b21-19-17-15------------------------------------|
B-------------10-10----------------17-15-13---------------------------|
G-7/9-9-12-12-------------------------------14-12------7-9b11~11r9p7h9|
D--------------------------------------------------7h9----------------|
A---------------------------------------------------------------------|
E---------------------------------------------------------------------|

E------------|
B------------|
G-7----------|
D---9--9p7---|
A----------9-|
E------------|

“Hey, I think I've got a live one
Hey, I think I've got a live one
Hey, I think I've got a live one
Hey, yeah I've got a live one.”
Lead and Rhythm Guitar
E--------------2-2-----|
B-7--7--7-7----3-3-----|
G-7--7--7-7-2--2-2-----| 4x
D-7--7--7-7-2--0-0-5-7-|
A-5--5--5-5-0------5-7-|
E------------------3-5-|

“Alone, raped and freezin’
Alone, cold and sneezin’
Alone, down in Mexico
Alone
Whoa”
E-------------------------|
B-------------------------|
G-------9~~~--------------|
D-9~~~--9~~~--5~~~--7~~~--|
A-9~~~--7~~~--5~~~--7~~~--|
E-7~~~--------3~~~--5~~~--|
Tap to rate this tab
 
# A B C D E F G H I J K L M N O P Q R S T U V W X Y Z