Song name
# A B C D E F G H I J K L M N O P Q R S T U V W X Y Z

Alice Cooper - Today Mueller tab

Band: Alice Cooper
Song: Today Mueller
Album: Pretties For You
Year: 1969
Tabbed by DoteStudios
Email is manbearpigisreal@gmail.com

Keys
b = bend
r = release
\ = slide up neck 
/ = slide down neck
h = hammer-on
p = pull-off
~ = hold note
w = whammy bar

“Today Mueller let it happen
Happy slappin', tappin' paddy-oh
She'd like to give her life away
Like to stay another day”
E-2--2--2--2----|
B-3--3--3--3----|
G-4--4--4--4----| 2x
D-------------5-|
A-------------5-|
E-------------3-|

“Try it out another way”

E---------------|
B---------------|
G---------------|
D-4---4-5-4-2-4-|
A-4-------------|
E-2-------------|

“Arh, today, today, today, today mueller
Give your notice of your leaving
Arh, today, today, today, today mueller
Don't tell them you can't go with me”

E---------------|
B---------------|
G---------------|
D-4-5-4-2-4-5-4-|
A---------------|
E---------------|

“This will always be”

“Ahhhhhhh”

E-------5~-----------|
B-7r5~------2h3h4~/--|
G--------------------|
D--------------------|
A--------------------|
E--------------------|

“Ahhhhhhh”

E-------5~----------------------------|
B-7r5~------2h3h4p3-2h3h4p3-2h3h4p3/--|
--------------------------------------|
D-------------------------------------|
A-------------------------------------|
E-------------------------------------|

“Red rover, red rover
Pass under, pass over, pass through
And over, and over the White Cliffs of Dover with you”

E-------------|
B-------------|
G-------------|
D-4---7---8---|
A-4---7---8---|
E-2---5---6---|

“Today mueller
Make it happen”
E-12h14-14\--12h14-14\--12h14-14\--12h14-14\--------------------|
B---------------------------------------------------------------|
G------------------------------------------------------4--4-4-4-|
D----------------------------------------------5---4---4--4-4-4-|
A----------------------------------------------5---4---2--2-2-2-|
E----------------------------------------------3---2------------|
Tap to rate this tab
# A B C D E F G H I J K L M N O P Q R S T U V W X Y Z