Song name
# A B C D E F G H I J K L M N O P Q R S T U V W X Y Z

Alice Cooper - Triggerman tab

Band: Alice Cooper
Song: Triggerman
Album: Dragontown
Year: 2002
Tabbed by DoteStudios
Email is undermywheels71@gmail.com

Note: Main riffs for Triggerman

Keys
b = bend
r = release
\ = slide up neck 
/ = slide down neck
h = hammer-on
p = pull-off
~ = hold note
w = whammy bar
v = vibrato

Riff 1
E---------------------------------------------------------|
B---------------------------------------------------------|
G---------------/5--5-5--5-7------------------------------|
D-/7--7-7--7-7----------------/5--5-5--5-5--/8--8-8--7-5--|
A---------------------------------------------------------|
E---------------------------------------------------------|

E--------------------------------------------------------|
B--------------------------------------------------------|
G--------------/5--5-5--5-7------------------------------|
D-/7--7-7--7-7---------------/5--5-5--5-5--/8-7-5---7----|
A-------------------------------------------------8----8-|
E--------------------------------------------------------|

Riff 2
"I'm pure non-entity
Don't even look for me
I watch you when you sleep"
E----------------------------------------------------------------|
B----------------------------------------------------------------|
G----------------------------------------------------------------|
D--------------------------------------------7-------------------|
A-/5-3--3-2-2-0-------/5-3--3-2-2-0--------7----7---------5----7-|
E---------------------------------------5----------5-5-6----8----|
Tap to rate this tab
 
# A B C D E F G H I J K L M N O P Q R S T U V W X Y Z