Song name
# A B C D E F G H I J K L M N O P Q R S T U V W X Y Z

Alice Cooper - Titanic Overture tab

Song: Titanic Overture
Band: Alice Cooper
Album: Pretties For You
Year: 1969
Tabbed by DoteStudios
Email is undermywheels71@gmail.com

Note: This is what is played on the keyboard by Michael Bruce, who wrote this.

Keys
b = bend
r = release
\ = slide up neck 
/ = slide down neck
h = hammer-on
p = pull-off
~ = hold note
w = whammy bar
v = vibrato

E----------------------------------|
B----------------------------------|
G----------------------------------|
D--------------------------5-------|
A-5--7--8~~--5-7-8-7-8-7-8---7-5~~-|
E----------------------------------|

E--------------------------------|
B--------------------------------|
G--------------------------------|
D------------------------5-------|
A-5-7-8~~--5-7-8-7-8-7-8---7-5~~-|
E--------------------------------|

E---------------------------------------------------------------------|
B---------------------------------------------------------------------|
G---------------------5-4-5-4-----------------------------------------|
D-------------6-5-6-5---------------------------6~~-------------------|
A-5-7-8-7-8-7------------------4-6-7-5~~--4-6-7------4-6-7-5~~--4-6-7-|
E---------------------------------------------------------------------|

E--------------|
B--------------|
G--------------|
D-6~~-7~~-8~~--|
A--------------|
E--------------|

E-----------------------|
B-----------------------|
G-----------------------| 2x
D---------------5-------|
A-5-7-8-7-8-7-8---7-5~~-|
E-----------------------|

E---------------------------------------------------------------------|
B---------------------------------------------------------------------|
G---------------------5-4-5-4-----------------------------------------|
D-------------6-5-6-5---------------------------6~~-------------------|
A-5-7-8-7-8-7------------------4-6-7-5~~--4-6-7------4-6-7-5~~--4-6-7-|
E---------------------------------------------------------------------|

E--------------|
B--------------|
G--------------|
D-6~~-7~~-8~~--|
A--------------|
E--------------|
Tap to rate this tab
 
# A B C D E F G H I J K L M N O P Q R S T U V W X Y Z