Song name
# A B C D E F G H I J K L M N O P Q R S T U V W X Y Z

Alice Cooper - You Look Good In Rags tab

Band: Alice Cooper
Song: You Look Good In Rags
Album: Special Forces
Year: 1981
Tabbed by DoteStudios
Email is undermywheels71@gmail.com

Note: This is what Mike Pinera (guitarist during Special Forces and Zipper Catches Skin) 
main riffs

You Look Good In Rags
Riff 1
E---------------------------------------------------------------------|
B---------------------------------------------------------------------|
G---------------------------------------------------------------------|
D----0-5-4-0--0h2-----0-5-4-0-2-----0-5-4-0--0h2-----0-5-4-2-0----0-1-|
A-/2---------------/2------------/2---------------/2------------2-----|
E---------------------------------------------------------------------|

E-------------------------------------------------------------|
B-------------------------------------------------------------|
G-------------------------------------------------------------|
D----0-5-4-0--0h2-----0-5-4-0-2-----0-5-4-0--0h2-----0-5-4-2--|
A-/2---------------/2------------/2---------------/2----------|
E-------------------------------------------------------------|

Riff 2
E-------------------------------------------------------------------|
B-------------------------------------------------------------------|
G-------------------------------------------------------------------|
D-9~~9--7--12\9--9--9--7/9~~9--7--12\9--9--9-7~~7--7--7~~7--7-2~~~--|
A-9~~9--7--12\9--9--9--7/9~~9--7--12\9--9--9-7~~7--7--7~~7--7-2~~~--|
E-7~~7--5--10\7--7--7--5/7~~7--5--10\7--7--7-5~~5--5--5~~5--5-0~~~--|

Riff 3
E------------------------------------------------------------------|
B------------------------------------------------------------------|
G---------------------------------------7--7-----------------------|
D-9~~~~-------------7--7/9~~~~----------7--7-5/7~~~~----------2~~~-|
A-9~~~~-------------7--7/9~~~~----------5--5-5/7~~~~----------2~~~-|
E-7~~~~-------------5--5/7~~~~---------------3/5~~~~----------0~~~-|

Riff 4
E--------------------------------|
B--------------------------------|
G----------------------------9\--|
D-9--------------------------9\--|
A-9-(repeat until “obscene”)-7\--|
E-7------------------------------|

Riff 5
E---------------------------------------------------------------------|
B---------------------------------------------------------------------|
G---------------------------------------------------------------------|
D----0-5-4-0--0h2-----0-5-4-0-2-----0-5-4-0--0h2-----0-5-4-2-0----0-1-|
A-/2---------------/2------------/2---------------/2------------2-----|
E---------------------------------------------------------------------|


Riff 1

Yeah yeah, Yeah

Riff 2
I've seen cool, I've seen cold
I've seen the women up front, way down below
The ladies of the evening, sweet
and some were like vipers

Riff 2
I've seen 'em dressed real tight, act real loose
I've seen 'em strutting good
stuff, I've seen 'em all used
With thousand dollar faces and works
every penny they spend there

Riff 1
But you look good in rags
With dirt in your hair
Yeah you look good in rags babe
Oh, I don't care
Ah, you look good
Yes you look good in rags
With buns in your hair
Ah, you look good in anything
Ooh, I don't care

Riff 3
Now I've seen class, I've seen tact
I've seen 'em walking down the street
with smoke in their stack
And pouring into limos, they wake up
in millionaires bedrooms

Riff 2
I've seen the hair cut short, black and sleek
Tied in 20 thousand knots so ultra unique
Swearing by the Harcos bazaar,
like it were the Bible

Riff 1
But you look good in rags
With dirt in your hair
Yeah you look good in rags babe
Oh, I don't care
Yeah yeah, you look good
Ah, look good in rags
With dirt in your hair
Ah, you look good in anything

Riff 4
Forget about vogue, or them hundred dollar jeans
you make a two dollar T-shirt obscene

Riff 5 (4x)
Rags ...
Tap to rate this tab
# A B C D E F G H I J K L M N O P Q R S T U V W X Y Z