Song name
# A B C D E F G H I J K L M N O P Q R S T U V W X Y Z

Alice Cooper - No More Mr Nice Guy tab

Band: Alice Cooper
Song: No More Mr. Nice Guy
Album: Billion Dollar Babies
Year: 1973
Tabbed by DoteStudios
Email is manbearpigisreal@gmail.com

Keys
b = bend
r = release
\ = slide up neck 
/ = slide down neck
h = hammer-on
p = pull-off
~ = hold note
w = whammy bar
v = vibrato

Rhythm Guitar (Michael Bruce)
E----------------------------|
B-10-10-8--8-8---------------|
G--9--9-9--7-7--0----7-------| 4x
D--7--7-7--7-7----/9---9p7p0-|
A----------------------------|
E----------------------------|

Lead Guitar (Glen Buxton)
E---------------------------------------------------------------------|
B--------------10b12---------------------10b12---------------10b12r10-|
G-9b11--11r9-7--------9b11-9b11-9b11r9-7--------9b11--11r9-7----------|
D---------------------------------------------------------------------|
A---------------------------------------------------------------------|
E---------------------------------------------------------------------|

E------------|
B------------|
G-9b11r9-7-9-|
D------------|
A------------|
E------------|

“I used to be such a sweet, sweet thing
'Til they got a hold of me.
I opened doors for little old ladies,”
I helped the blind to see.”
Lead Guitar
E-----------------------------------------------------------------|
B-----------------------------------------------------------------|
G-9b11r9-------------4--/7-9-9b11r9---9b11r9---9b11r9-----4--/7-9-|
D--------7---6---5------------------7--------6--------5-----------|
A-----------------------------------------------------------------|
E-----------------------------------------------------------------|

Rhythm Guitar
E-----------------------------------------------------------------|
B-----------------------------------------------------------------|
G--------2---6-------4---7-9---------2~~-----6~~----------4---7-9-|
D--------2---6---5---4---7-9---------2~~-----6~~------5---4---7-9-|
A--------0---4---5---2---5-7---------0~~-----4~~------5---2---5-7-|
E----------------3------------------------------------3-----------|

“I got no friends 'cause they read the papers.
They can't be seen…”
Lead Guitar
E---------------------------------------------|
B---------------------------------------------|
G-------------------------------------9-11-9--|
D--------------------------------9h11---------|
A---------------------------------------------|
E---------------------------------------------|

Rhythm Guitar
E---------------------------------------------|
B---------------------------------------------|
G---------4~~4--4-4/7~~7--7-7/9---------------|
D-4~~4--4-4~~4--4-4/7~~7--7-7/9---------------|
A-4~~4--4-2~~2--2-2/5~~5--5-5/7---------------|
E-2~~2--2-------------------------------------|

“…with me and I'm gettin' real shot down
And I'm feeling mean.”
Lead Guitar
E--------------------------------------------------|
B------------------------------------------12b14~~-|
G-------------------------------------9-11---------|
D--------------------------------9h11--------------|
A--------------------------------------------------|
E--------------------------------------------------|

Rhythm Guitar
E--------------------------------------------------|
B--------------------------------------------------|
G---------4~~4--4-4/7~~7--7-7/9--------------------|
D-4~~4--4-4~~4--4-4/7~~7--7-7/9--------------------|
A-4~~4--4-2~~2--2-2/5~~5--5-5/7--------------------|
E-2~~2--2------------------------------------------|

“No more Mister Nice Guy,
No more Mister Clean”
Lead Guitar
E------------------------------------------------------|
B--------------------12b14~~~--------------------------|
G------------------------------------------------------|
D------------------------------------------------------|
A------------------------------------------------------|
E------------------------------------------------------|

Rhythm Guitar
E---------------------------------------------------9--|
B-10-----10-9-------------10-----10-9-----------10-----|
G----11-------11-9-----------11-------11-9--11---------|
D-------------------12---------------------------------|
A------------------------------------------------------|
E------------------------------------------------------|

“No more Mister Nice Guy,
They say he's sick, he's obscene.”
Lead Guitar
E------------------------------------------------------|
B-12b14~~~----------------12b14~~~---------------------|
G------------------------------------------------------|
D------------------------------------------------------|
A------------------------------------------------------|
E------------------------------------------------------|

Rhythm Guitar
E---------------------------------------------------9--|
B-10-----10-9-------------10-----10-9-----------10-----|
G----11-------11-9-----------11-------11-9--11---------|
D-------------------12---------------------------------|
A------------------------------------------------------|
E------------------------------------------------------|

Rhythm Guitar
E----------------------------|
B-10-10-8--8-8---------------|
G--9--9-9--7-7--0----7-------| 2x
D--7--7-7--7-7----/9---9p7p0-|
A----------------------------|
E----------------------------|

Lead Guitar
E----------------------------|
B----------14b15-14b15-14----|
G----12-14-------------------|
D-14-------------------------|
A----------------------------|
E----------------------------|

Rhythm Guitar
E----------------------------|
B-10-10-8--8-8---------------|
G--9--9-9--7-7--0----7-------| 2x
D--7--7-7--7-7----/9---9p7p0-|
A----------------------------|
E----------------------------|

Lead Guitar
E------------------------------|
B-17b19--17b19r17--------------|
G-----------------16b18r16-----|
D--------------------------16--|
A------------------------------|
E------------------------------|

“I got no friends 'cause they read the papers.
They can't be seen…”
Lead Guitar
E--------------------------------------------------|
B------------------------------------------12b14~~-|
G-------------------------------------9-11---------|
D--------------------------------9h11--------------|
A--------------------------------------------------|
E--------------------------------------------------|

Rhythm Guitar
E--------------------------------------------------|
B--------------------------------------------------|
G---------4~~4--4-4/7~~7--7-7/9--------------------|
D-4~~4--4-4~~4--4-4/7~~7--7-7/9--------------------|
A-4~~4--4-2~~2--2-2/5~~5--5-5/7--------------------|
E-2~~2--2------------------------------------------|

“…with me and I'm gettin' real shot down
And I'm feeling mean.”
Lead Guitar
E--------------------------------------------------|
B--------------------------------------------------|
G-------------------------------------9-11---------|
D--------------------------------9h11------10b11~~-|
A--------------------------------------------------|
E--------------------------------------------------|

Rhythm Guitar
E--------------------------------------------------|
B--------------------------------------------------|
G---------4~~4--4-4/7~~7--7-7/9--------------------|
D-4~~4--4-4~~4--4-4/7~~7--7-7/9--------------------|
A-4~~4--4-2~~2--2-2/5~~5--5-5/7--------------------|
E-2~~2--2------------------------------------------|

“No more Mister Nice Guy,
No more Mister Clean”
Lead Guitar
E------------------------------------------------------|
B--------------------12b14~~~--------------------------|
G------------------------------------------------------|
D------------------------------------------------------|
A------------------------------------------------------|
E------------------------------------------------------|

Rhythm Guitar
E---------------------------------------------------9--|
B-10-----10-9-------------10-----10-9-----------10-----|
G----11-------11-9-----------11-------11-9--11---------|
D-------------------12---------------------------------|
A------------------------------------------------------|
E------------------------------------------------------|

“No more Mister Nice Guy,
They say he's sick, he's obscene.”
Lead Guitar
E------------------------------------------------------|
B-12b14~~~----------------12b14~~~---------------------|
G------------------------------------------------------|
D------------------------------------------------------|
A------------------------------------------------------|
E------------------------------------------------------|

Rhythm Guitar
E---------------------------------------------------9--|
B-10-----10-9-------------10-----10-9-----------10-----|
G----11-------11-9-----------11-------11-9--11---------|
D-------------------12---------------------------------|
A------------------------------------------------------|
E------------------------------------------------------|

“My dog bit me on the leg today.
My cat clawed my eyes.
Ma's been thrown out of the social circle,
And dad has to hide.”
Lead Guitar and Rhythm Guitar
E---------9---------9--------7-------|
B------10---------9--------8----7--9-|
G----9----------9--------7------7--9-| 2x
D-11---------11--------9--------9--9-|
A------------------------------------|
E------------------------------------|

“I went to church incognito.
When everybody rose, the Reverend Smith,
He recognized me,
And punched me in the nose.”
Lead Guitar
E-------------------------------------|
B-------------------------------------|
G-9b11r9---9b11r9---9b11r9----4--/7-9-|
D--------7--------6--------5----------|
A-------------------------------------|
E-------------------------------------|

Rhythm Guitar
E--------------------------------------|
B--------------------------------------|
G--------2--------6------------4---7-9-|
D--------2--------6--------5---4---7-9-|
A--------0--------4--------5---2---5-7-|
E--------------------------3-----------|
Repeat the 2 riffs above 2x

“No more Mister Nice Guy,
No more Mister Clean,
No more Mister Nice Guy,
They say you’re sick, you’re obscene
No more Mister Nice Guy,
No more Mister Clean,
No more Mister Nice Guy,
They say you’re sick, you’re obscene”
Lead Guitar
E------------------------------------------------------|
B-12b14~~~----------------12b14~~~---------------------|
G------------------------------------------------------|
D------------------------------------------------------|
A------------------------------------------------------|
E------------------------------------------------------|

Rhythm Guitar
E---------------------------------------------------9--|
B-10-----10-9-------------10-----10-9-----------10-----|
G----11-------11-9-----------11-------11-9--11---------|
D-------------------12---------------------------------|
A------------------------------------------------------|
E------------------------------------------------------|
Repeat the 2 riffs above 4x

After the 4th time…
Rhythm Guitar
E-----------9------------9--12~~--|
B-------10-----------10-----------|
G-9-11---------9-11---------------|
D---------------------------------|
A---------------------------------|
E---------------------------------|
Tap to rate this tab
# A B C D E F G H I J K L M N O P Q R S T U V W X Y Z