Song name
# A B C D E F G H I J K L M N O P Q R S T U V W X Y Z

Alice Cooper - You Make Me Wanna tab

This is my first tab plus im only 15.
Dont judge the age.
hope this will help ya.
Long Live Alice Cooper


Artist: Alice Cooper
Album: Dirty Diamonds
SOng: You Make me wanna


Intro

---------------------------------------|
---------------------------------------|
---444---------------------------------|
---444---7--555---7--------------------|
---222---7--555---7--------------------|
---------5--333---5--------------------|


verse
                                           then..
---------------------------------------/--------------|
---------------------------------------/--------------|
---44-4--------------------------------/--44----------|
---44-4---44-4---22-2-22-2-22---REPEAT/---44-44-55-66-|
---22-2---44-4---22-2-22-2-22----------/--22-44-55-66-|
----------22-2---00-0-00-0-00----------/-----22-33-44-|

Chorus

------------------------------------|
------------------------------------|
---444---777------------------------|
---444---777---222---555------------|
---222---555---222---555------------|
---------------000---333------------|


Bridge thingy
----------------------------------------|
----------------------------------------|
---4-------7----------------------------|
---4-ring--7-ring-7------4--------------|
---2-------5------7-ring-4--------------|
------------------5------2--------------|
Tap to rate this tab
# A B C D E F G H I J K L M N O P Q R S T U V W X Y Z