Song name
# A B C D E F G H I J K L M N O P Q R S T U V W X Y Z

Alice Cooper - Freedom tab

----------------------------------------------------------------------------|
----------------------------------------------------------------------------|
-----------5----7----5----------------------5----5----5---------------------|
-----------5----7----5----------------------5----4----3---------------------|
0-0-0-0-0-0-0-0--0-0-----0-0-0-0-0-0-0-0-0-0--0-0--0-0--0-0-0-0-------------|
----------------------------------------------------------------------------|

-------------------------------|
-------------------------------|     pinch harmonic-effects
-----------5----7----5---------|
-----------5----7----5---------|
0-0-0-0-0-0-0-0--0-0-----------|
-------------------------------|

------------------------------------------------------14-----14-------------|
--------------------------------------------------------12---12-------------|
-----------5----7----5----------------------5----5--------10----------------|
-----------5----7----5----------------------5----4--------------------------|
0-0-0-0-0-0-0-0--0-0-----0-0-0-0-0-0-0-0-0-0--0-0--0-0----------------------|
----------------------------------------------------------------------------|

 Verse
---------------------------------------------------------------------|
---------------------------------------------------------------------|
---------------------------------------------------------------------|
-2---------------2-----2-------v-------5-----5---5----------------2--| 3x
-0-0-0-0-0-0-0-0-0-0-0-0-0-0-2-3-3-3-3-3-3-3-3-3-3-3-2---5----6---0--|
---------------------------------------------------------3----4------|

Pre-Chorus

-----------------------------|
---1---1--1------------------|
--2---2------0---------------|
-3---3---3--2-----0----------|
-----------3--3--2-----------|
----------------3--3---------|


Chorus

-------------------------------------|
-------------------------------------|
-------------------5-----5---5-----5-|
-2--2--5---7---5---5-5-5-4---4-4-4-3-|    2x
-0--0--3---5---3---------------------|
---------0---0-----------------------|

---------------|
---------------|
-----------2---|
-----------0---|
-5----6--------|
-3----4--------|
FREEDOM!!!

Verse 2 guitar fill

------8---10p8-10-8--8-----------------|
-8h10----------br--10------------------|
---------------------------------------|
---------------------------------------|
---------------------------------------|
---------------------------------------|

Legend:
          h - Hammer on
          p - Pull off
         br - bend and release

This is the whole song but there i could not transcribe the solo and the pinch harmonic effects.
Tap to rate this tab
# A B C D E F G H I J K L M N O P Q R S T U V W X Y Z