Song name
# A B C D E F G H I J K L M N O P Q R S T U V W X Y Z

Alice Cooper - Man With The Golden Gun tab

Song: Man With The Golden Gun
Band: Alice Cooper
Album: Muscle Of Love
Year: 1973
Tabbed by DoteStudios
Email is manbearpigisreal@gmail.com

Keys
b = bend
r = release
\ = slide up neck 
/ = slide down neck
h = hammer-on
p = pull-off
~ = hold note
w = whammy bar
v = vibrato
t = trill (very fast hammer-ons)

Man with the Golden Gun

E--------------------------|
B--------------------------|
G-0-2-3---6-5---3-0---3-0--| 2x
D-0-2-3---6-5---3-0---3-0--|
A--------------------------|
E--------------------------|

“The man,
with the golden gun”
E--------------------------|
B--------------------------|
G-0-2-3---6-5---3-0---3-0--|
D-0-2-3---6-5---3-0---3-0--|
A--------------------------|
E--------------------------|

“He’s waiting
Somewhere
Out there
For you”
E-----------------------------|
B-----------------------------|
G-0-3-2---7-6---3-0-----------|
D-0-3-2---7-6---3-0---0-----2-|
A-----------------------1-----|
E-------------------------3---|

“But you’ll never see him,
he’ll be lookin’ for you”
E-3~~------3-6-5--6h5p3----------------|
B-4~~--3-4----------------3-3-3-----3--|
G-5~~---------------------------5-3----|
D-5~~----------------------------------|
A-3~~----------------------------------|
E--------------------------------------|

E----------------------------|
B----------------------------|
G-0-3-0--0-5-0--0-6-0--0-5-0-|
D-0-3-0--0-5-0--0-6-0--0-5-0-|
A----------------------------|
E----------------------------|

“Demand
For the golden gun
It's high priced, precise, and true
E--------------------------|
B--------------------------|
G-0-2-3---7-6---3-0---3-0--|
D-0-2-3---7-6---3-0---3-0--|
A--------------------------|
E--------------------------|

E-----------------------------------------|
B---------------------0-6-5--0-5-4--0-4-3-|
G-0-3-2---7-6---3-0-----------------------|
D-0-3-2---7-6---3-0-----------------------|
A-----------------------------------------|
E-----------------------------------------|

“But you’ll never see him,
he’ll be lookin’ for you”
E-3~~------3-6-5--6h5p3----------------|
B-4~~--3-4----------------3-3-3-----3--|
G-5~~---------------------------5-3----|
D-5~~----------------------------------|
A-3~~----------------------------------|
E--------------------------------------|

“The man with the golden
Gun in his pocket, Oh, oh
The man with the golden
Gun in his case, Oh, oh
The man with the golden
Gun in your face”
E------------------------------------------|
B------------------------------------------|
G-0-3-0--0-5-0--0-6-0--0-5-0--0-2-3~~-10~~-| 2x
D-0-3-0--0-5-0--0-6-0--0-5-0--0-2-3~~-10~~-|
A------------------------------------------|
E------------------------------------------|

E----------------------------------------|
B----------------------------------------|
G-0-3-0--0-5-0--0-6-0--0-5-0--0-2-3/12~~-|
D-0-3-0--0-5-0--0-6-0--0-5-0--0-2-3/12~~-|
A----------------------------------------|
E----------------------------------------|

Solo
Bass
E-----------------------------|
B-----------------------------|
G-----------------------------| repeat
D-----5-4--0-4-3--0-3-2-------|
A---5-------------------------|
E-3---------------------0-1-2-|

Guitar
E---------------------------------------------------|
B---------------------------------------------------|
G---------------------------------------------------|
D------------------------------------5--4--3----2t3-|
A---------5--4--------4-----3-----5-----------4-----|
E-ps/--3--------5--6-----5-----3--------------------|

E--------------------------------------------|
B--------------------------------------------|
G--------------------------------------------| 2x
D-------------------------------5--4--3----2-|
A----5--4--------4-----3-----5-----------4---|
E-3--------5--6-----5-----3------------------|

“But you'll never see him 
He'll be looking for you 
You better believe 
He'll be looking for you”
E-3~~------3-6-5--6h5p3----------------|
B-4~~--3-4----------------3-3-3-----3--|
G-5~~---------------------------5-3----| 2x
D-5~~----------------------------------|
A-3~~----------------------------------|
E--------------------------------------|

“He-e-e-e-e-e's, The man with the golden
Gun in his pocket
The man with the golden
Gun in his case
The man with the golden
Gun in his pocket
The man with the golden
Gun in your face”
E-------------------------------------|
B-------------------------------------|
G-0-3-0--0-5-0--0-6-0--0-5-0--6-5p3p0-| 5x
D-0-3-0--0-5-0--0-6-0--0-5-0----------|
A-------------------------------------|
E-------------------------------------|

Horns (play very fast)…
E-6-5-3---3---2-------------------------------|
B-------6---3---3-6--6-5-3---3---2------------|
G--------------------------5---3---3-5---3----|
D--------------------------------------5---5--|
A---------------------------------------------|
E---------------------------------------------|

Play this riff once after each time the horns play…
E---------------------------|
B---------------------------|
G-3-x-6-x-5-x-x-x-3-x-6-x-5-|
D-3-x-6-x-5-x-x-x-3-x-6-x-5-|
A---------------------------|
E---------------------------|
The horns and guitar play 4x

“But you'll never see him
He'll be looking for you
You better believe
He'll be looking for yo-ou”
E-3~~------3-6-5--6h5p3----------------|
B-4~~--3-4----------------3-3-3-----3--|
G-5~~---------------------------5-3----| 2x
D-5~~----------------------------------|
A-3~~----------------------------------|
E--------------------------------------|

“He-e-e-e-e-e's, The man with the golden
Gun in his pocket
The man with the golden
Gun in his case
The man with the golden
Gun in his pocket
The man with the golden
Gun in your face
The man with the go-o-olden
Gun in his pocket
The man with the go-o-lden
Gun in his case
The man who gave you the golden gun”
E-------------------------------------|
B-------------------------------------|
G-0-3-0--0-5-0--0-6-0--0-5-0--6-5p3p0-| 7x
D-0-3-0--0-5-0--0-6-0--0-5-0----------|
A-------------------------------------|
E-------------------------------------|
Tap to rate this tab
 
# A B C D E F G H I J K L M N O P Q R S T U V W X Y Z