Guitaretab - guitar tabs
Song name
# A B C D E F G H I J K L M N O P Q R S T U V W X Y Z

Alice Cooper - Steven tab

Band: Alice Cooper
Song: Steven
Album: Welcome To My Nightmare
Year: 1975
Tabbed by DoteStudios
Email is manbearpigisreal@gmail.com

 I'll tab the outro soon...

Keys
b = bend
r = release
\ = slide up neck 
/ = slide down neck
h = hammer-on
p = pull-off
~ = hold note
w = whammy bar
v = vibrato
t = trill (very fast hammer-ons)

Steven
Piano
E----12----12----12----12--|
B-------15----13----12-----|
G-14-----------------------| repeat
D--------------------------|
A--------------------------|
E--------------------------|

2:07
Rhythm Guitar
E--------------------------------------|
B--------------------------------------|
G--------------------------------------|
D--------------------------------------|
A--------------------------------------|
E-0-5~~~---5\-0~~~---0-5~~~---5\-0~~~--|

E--------------------------------------------------------------|
B--------------------------------------------------------------|
G--------------------------------------------------------------|
D-----------2--------------------------------------------------|
A-------2-3---5---3-2---------2-5-3---2-------------3-2~~/-----|
E-0-5-----------------5-3---5-----------5-3-1---3-5---------0--|

2:59
Rhythm Guitar
E----------------------------|
B----------------------------|
G----------------------------|
D----------------------------|
A----------------------------|
E-5~~---5~~---5~~---5\-0~~~--|
[ Tab from: http://www.guitaretab.com/a/alice-cooper/172309.html ]
3:13
Lead Guitar
E-12--12-12-----------13~~-------15-----12----------------------------|
B------------15-13-15----------------15------15--14-13--13-13---------|
G---------------------------/12-------------------------------14-14---|
D-------------------------------------------------------------------15|
A---------------------------------------------------------------------|
E---------------------------------------------------------------------|

E--------------------|
B-----------13-12~~--|
G--------14----------|
D-15--15-------------|
A--------------------|
E--------------------|

Rhythm Guitar
E---------------------------------------------------------|
B---------------------------------------------------------|
G---------------------------------------------------------|
D---------2-----------------------------------------------|
A-----2-3---5---3-2---------2-5-3---3-2-----------3-2-----|
E-5-----------------5-3---3-------------5-1---1-5------0--|

I don't want to feel you die
But if that's the way that God has planned you
I'll put pennies on your eyes
And it will go away
See?
Lead Guitar
E----------------12------------------12-----------------------12----|
B-------12-13-15------------12-13-15------15-13-12------12-13----15-|
G-14------------------14---------------------------14---------------|
D-------------------------------------------------------------------|
A-------------------------------------------------------------------|
E-------------------------------------------------------------------|

E------------------------------------------|
B-13-12------------12-15-13---13-12--------|
G-------14-12---14------------------14-----|
D--------------------------------------15--|
A------------------------------------------|
E------------------------------------------|
Related for Steven tab