Song name
# A B C D E F G H I J K L M N O P Q R S T U V W X Y Z

Alice Cooper - In Touch With Your Feminine Side tab

-------------------------------------------------------------------------------
			     FEMININE SIDE - Alice Cooper
-------------------------------------------------------------------------------
Tabbed by: ironmanben
Email: ironmanben@yahoo.com

Tuning: eb Bb Gb Db Ab Eb

When I say something like this:
12^(13)p12
It means (in ironmanben terms) to unbend without picking another note.

main riff:
e|------------------------------------------------------3-2-|
B|------------------------------------------------------0-3-|
G|-2-2-2-/7-0-/7-\5-2-2-2-/7-0-/7-\5-2-2-2-/7-0-/7-\5---0-2-|
D|-2-2-2-/7-0-/7-\5-2-2-2-/7-0-/7-\5-2-2-2-/7-0-/7-\5---0-0-|
A|-0-0-0------------0-0-0------------0-0-0------------0-2---|
E|------------------------------------------------------3---|
-|                                                          |
e|----------------------------------------------------------|
B|----------------------------------------------------------|
G|-2-2-2------------2-2-2------------2-2-2----------------7-|
D|-2-2-2------------2-2-2------------2-2-2--------------5-7-|
A|-0-0-0-/6-0-/5-\3-0-0-0-/6-0-/5-\3-0-0-0-/6-0-/5-\3-0-5-5-|
E|------------------------------------------------------3---|

verse:
e|-8-8---8--8-8-8---8--8--8---8---------|
B|-8-8---8--8-8-8---8--8--8---8---------|
G|-7-7---7--7-7-7---7--7--7---7-5-5-4-4-|
D|--------------------------------------|
A|--------------------------------------|
E|--------------------------------------|
-|                                      |
e|--------------------------------------|
B|--------------------------------------|
G|-2-2---2--2-2-2---2--2--2---2---------|
D|-2-2---2--2-2-2---2--2--2---2-3-3-2-2-|
A|-0-0---0--0-0-0---0--0--0---0---------|
E|--------------------------------------|

pre-chorus:
e|--------------------|
B|--------------------|
G|-777--10---7--------|
D|-777--10---7---3--5-|
A|-555--8----5---3--5-|
E|---------------1--3-|
-|                    |
e|--------------------|
B|--------------------|
G|-7---------7--------|
D|-7----3----7---3--5-|
A|-5----3----5---3--5-|
E|------1--------1--3-|

chorus:
e|-5--5-5-5-----------------------------------------|
B|-5--5-5-5-------7------------------------------22-|
G|-2--2---2--7--7-7-7------5--4--4--5--5-4-5-4-2-22-|
D|-----------7--7-7-7--3---7--7--7--7--7-7-7-7-5-22-|
A|---------------------3----------------------------|
E|---------------------1----------------------------|
-|                                                  |
e|--------------------------------------------------|
B|--------------------------------------------------|
G|-2--2-2-2--7--7-7-7--10--10-10-10--12--12-12-12---|
D|-2--2-2-2--7--7-7-7--10---8--8--8--12--12-12-12---|
A|-0--0-0-0--5--5-5-5--8----8--8--8--10--10-10-10---|
E|--------------------------------------------------|
-|                                                  |
e|--------------------------------------------------|
B|--------------------------------------------------|
G|-2--2-2-2--7--7-7-7-------------------------------|
D|-2--2-2-2--7--7-7-7--3----3--3--3--5---5--5--5----|
A|-0--0-0-0--5--5-5-5--3----3--3--3--5---5--5--5----|
E|---------------------1----1--1--1--3---3--3--3----|

guitar solo:
e|--------------------------------------------------------------------------|
B|--------------------------------------------------------------------------|
G|-7^(9)-7^(9)7^(9)7^(9)7^(9)-7p5--7^(9)-7^(9)7^(9)7^(9)7^(9)-7p5--7^(9)-7^-|
D|-------------------------------7-------------------------------7----------|
A|--------------------------------------------------------------------------|
E|--------------------------------------------------------------------------|
-|
e|--------------------------------------------------------------------------|
B|--------------------------------------------------------------------------|
G|--------------------------------------------------------------------------|
D|-(repeat intro x1.......................................................)-
A|--------------------------------------------------------------------------|
E|--------------------------------------------------------------------------|

e|---------------------------------------------------------------------------|
B|---------------------------------------------------------------------------|
G|-(9)7^(9)7^(9)7^(9)-7p5--7~---5-7-7^(9)-----5-7-7^(9)-7----5-7-7^(9)-7-5---|
D|-----------------------7-----------------5h7------------5h7--------------7-|
A|---------------------------------------------------------------------------|
E|---------------------------------------------------------------------------|
-|
e|---------------------------------------------------------------------------|
B|---------------------------------------------------------------------------|
G|-(the rest of intro x1................)--2-2---2---------------------------|
D|-----------------------------------------2-2---2-5-5-----------------------|
A|-----------------------------------------0-0---0-5-5-----------------------|
E|-------------------------------------------------3-3-----------------------|

e|-----------------------------------------------------------------------------|
B|--------------------------------------------------------------13--9^(12------|p9
G|-5-----7---------5-7-7^(9)-/9-12-9-12^(14)p12-/9-12-9-9-/9-12---12-----------|
D|---7-4---4-3-5h7-------------------------------------------------------------|
A|-----------------------------------------------------------------------------|
E|-----------------------------------------------------------------------------|

e|-----------------------------------------------------------------------------|
B|-----------------------------------------------------------------------------|
G|-----------------------------------------------------------------------------|
D|-5---4--4-3-5-7(repeat the last 11 notes x1)---------------------------------|
A|-5---4--4-3-5-7--------------------------------------------------------------|
E|-3---2--2-1-3-5--------------------------------------------------------------|

e|-------------------------------------------------|
B|-------5---7^(8)p7-5-----5---7^(8)p7-5-----7-----|
G|-----5---5-------------5---5-------------7-------|
D|-5-7-----------------6-----------------4-----3-2-|
A|-------------------------------------------------|
E|-------------------------------------------------|
guitar 2 still repeating


pre-chorus 2:
e|-2-----------------------------------|
B|-3-----------------------------------|
G|-2----10--111111-121212-12-121212-12-|
D|-0----10--111111-121212-12-121212-12-|
A|------8---9-9-9--101010-10-101010-10-|
E|-------------------------------------|
-|                             |
e|-----------------------------|
B|-----------------------------|
G|-7---------7-----------------|
D|-7----3----7---3-3--3-3-3--3-|
A|-5----3----5---3-3--3-3-3--3-|
E|------1--------1-1--1-1-1--1-|


chorus 2:
e|-----3--------------------------------------|
B|-----3-----------------8-8-7-2--7-8-7-8-7-5-|
G|-2-2---2--/7-7-7-5-2-2-8-8-7-2--7-8-7-8-7-5-|
D|-2-2---2--/7-7-7-5-2-2----------------------|
A|--------------------------------------------|
E|--------------------------------------------|
-|                                            |
e|--------------------------------------------|
B|--------------------------------------------|
G|-2------------------------------------------|
D|-2------------------------------------------|
A|-0------------------------------------------|
E|--------------------------------------------|

Then do the regular chorus again, except with guitar 1 playing what it plays in chorus 
 This will be chorus 1/2

outro solo:
(guitar 2 repeats intro under)
e|------------------------------------5---5^---------------------------------|
B|--------------------------------------5------------------------------------|
G|----------5p---------9p7-5-----------------------7^(9)p7p5p-7-5------------|
D|-5h75h75h7--7----------------------------------------------7---7p5h7-------|
A|---------------------------------------------------------------------------|
E|---------------------------------------------------------------------------|

e|---------------------------------------------------------------------------|
B|-----------------------------5----------8-8-10-----------------------------|
G|---------------------7-7^(9)---7^(9)p7------12^(14)--2---------------------|
D|-7\-5\-2p0-------------------------------------------2---------------------|
A|-----------3^-0-3^-5---------------------------------0---------------------|
E|---------------------------------------------------------------------------|

Order:
main riff x2
verse x2
pre-chorus x1
chorus x2
small break
verse x2
pre-chorus x1
chorus x2
guitar solo
chorus 2 x2
chorus 1/2 x2
outro solo


| /  slide up
| \  slide down
| h  hammer-on
| p  pull-off
| ~  vibrato
| +  harmonic
| x  Mute note
===============================================================================
Tap to rate this tab
 
# A B C D E F G H I J K L M N O P Q R S T U V W X Y Z