Song name
# A B C D E F G H I J K L M N O P Q R S T U V W X Y Z

Alice Cooper - Billion Dollar Babies tab

solo
E|--------------------|8-10b----------|13-15-13\12------------------------|
B|----------------8-10|---------------|------------15-13-12----12-13-12---|
G|------------7-9-----|--------10~~~~-|---------------------------------12|
D|------7-10----------|---------------|-----------------------------------|
A|-7-10---------------|---------------|-----------------------------------|
E|--------------------|---------------|-----------------------------------|

E|------------------|-------------------|------------------------------|
B|-15b----15-13~~~~~|-15-13-12----------|-10---8-------10-8-10-8-10~--8|
G|------------------|-----------14-12-14|----9---9-7-9-----------------|
D|------------------|-------------------|------------------------------|
A|------------------|-------------------|------------------------------|
E|------------------|-------------------|------------------------------|




E|---------------------------------------------|-------5-----8---8--------|
B|10-12-13\12-10-12-10-12-13-13\10-8-10-8---8--|-----5----10----------13b~|
G|----------------------------------------9---9|-7-5----------10--14------|
D|---------------------------------------------|--------------------------|
A|---------------------------------------------|--------------------------|
E|---------------------------------------------|--------------------------|
Tap to rate this tab
 
# A B C D E F G H I J K L M N O P Q R S T U V W X Y Z