Alice Cooper - Snakebite tab

----------------------------------------------------------------------------
			     Snakebite - Alice Cooper
----------------------------------------------------------------------------
Tabbed by:seanjtysoe
Email:3ddie12@gmail.com

i have worked out all the main parts. 
you need to put them together.

Tuning:drop d

part 1
e|----------------------------------------------------------------------|
B|----------------------------------------------------------------------|
G|----------------------------------------------------------------------|
D|-0---7-7-6-6-7-------------0---7-7-6-6-7---0-10-----------------------|
A|-0---------------------3---0---------------0-10-----------------------|
E|-0---------------3-5-7-----0---------------0-10-----------------------|

part 2 - play and let chord ring then play part 1 again
e|--------------------/--------------------------------------------------|
B|-------------------/-------------this--is-played--at--this-------------|
G|------------------/--------2-3----point as well on other---------------|
D|--1--------------/---1---1------------verses---------------------------|
A|--1-------------/----1-------------------------------------------------|
E|--1------------/-----1-------------------------------------------------|

part 3/pre chorus - let chords ring
e|-----------------------------------------------------------------------|
B|-----------------------------------------------------------------------|
G|-----------------------------------------------------------------------|
D|---3------6----3---------3------6----3--5------------------------------|
A|---3------4----1---------3------4----1--3------------------------------|
E|---3---------------------3---------------------------------------------|

part 4/chorus 
e|-----------------------------------------------------------------------|
B|-----------------------------------------------------------------------|
G|-----------------------------------------------------------------------|
D|---------------------3-0-----------------3-2-0-------------------------|
A|--5-7-8---7-8-----10-3-0---------0-3-----3-2-0-------------------------|
E|--------8------10----3-0---0-2-3-----5---3-2-0-------------------------|

part 5
e|-----------------------------------------------------------------------|
B|-----------------------------------------------------------------------|
G|-----------------------------------------------------------------------|
D|--5-7-8---7-8----10----------------------------------------------------|
A|--------6------8----------------5-8-3----------------------------------|
E|--------------------8-5---5-7-8--------8-7-5---------------------------|

thats all for now. i will put the rest of it and the solo up 
but this should be good enough. i know it may not be 100% but
no one else has put a normal tab of this song for people who dont have guitar pro.
Tap to rate this tab
 
# A B C D E F G H I J K L M N O P Q R S T U V W X Y Z