Song name
# A B C D E F G H I J K L M N O P Q R S T U V W X Y Z

Alice Cooper - No More Mr Nice Guy tab

-------------------------------------------------------------------------------
			NO MORE MR. NICE GUY - Alice Cooper
-------------------------------------------------------------------------------
Tabbed by: ironmanben
Email: bentrooper@gmail.com

Tuning: e B G D A E


guitar 1 - Michael Bruce - rhythm
guitar 2 - Glen Buxton - lead
guitar 3 - Glen Buxton - solos/fills

Complete and accurate tab.  

guitar 1:
e|---------------------------------------------------------|
B|-10------10------8-----------8-------8-------------------|
G|-9-------9-------9-----------7-------7-------0---7-------|
D|-7-------7-------7-----------7-------7--------/9---9p7p0-|
A|---------------------------------------------------------|
E|---------------------------------------------------------|
-| guitar 2:                                               |
e|---------------------------------------------------------|
B|---------------------------------------------------------|
G|-------------------------------------------------7-------|
D|----------------------------------------------/9---9p7p0-|
A|-0-------------------------------------------------------|
E|---------------------------------------------------------|


e|---------------------------------------------------------|
B|-10------10------8-----------8-------8-------------------|
G|-9-------9-------9-----------7-------7-------0---7-------|
D|-7-------7-------7-----------7-------7--------/9---9p7p0-|
A|---------------------------------------------------------|
E|---------------------------------------------------------|
-|                                                         |
e|---------------------------------------------------------|
B|---------------------------------------------------------|
G|-------------------------------------------------7-------|
D|----------------------------------------------/9---9p7p0-|
A|-0-------------------------------------------------------|
E|---------------------------------------------------------|


e|---------------------------------------------------------|
B|-10------10------8-----------8-------8-------------------|
G|-9-------9-------9-----------7-------7-------0---7-------|
D|-7-------7-------7-----------7-------7--------/9---9p7p0-|
A|---------------------------------------------------------|
E|---------------------------------------------------------|
-|                                                         |
e|---------------------------------------------------------|
B|---------------------------------------------------------|
G|-------------------------------------------------7-------|
D|----------------------------------------------/9---9p7p0-|
A|-0-------------------------------------------------------|
E|---------------------------------------------------------|


e|---------------------------------------------------------|
B|-10------10------8-----------8-------8-------------------|
G|-9-------9-------9-----------7-------7-------0---7-------|
D|-7-------7-------7-----------7-------7--------/9---9p7p0-|
A|---------------------------------------------------------|
E|---------------------------------------------------------|
-|                                                         |
e|---------------------------------------------------------|
B|---------------------------------------------------------|
G|-------------------------------------------------7-------|
D|----------------------------------------------/9---9p7p0-|
A|-0-------------------------------------------------------|
E|---------------------------------------------------------|


guitar 1:
e|---------------------------------|---------------------------------|
B|---------------------10--109-----|---------------------------------|
G|-4---4---4-4-4-9-9---9---9-9-----|-4---4---4-4-4-9-9---9-----9-9---|
D|-4---4---4-4-4-9-9---9---9-9-----|-4---4---4-4-4-9-9---9-----9-9---|
A|-2---2---2-2-2-7-7---------------|-2---2---2-2-2-7-7---7-----7-7---|
E|---------------------------------|---------------------------------|
-| guitar 2:                       |                                 |
e|---------------------------------|---------------------------------|
B|-3---------------9---------------|-3---------------9---------------|
G|-4---------------9---------------|-4---------------9---------------|
D|-4---------------9---------------|-4---------------9---------------|
A|-2---------------7---------------|-2---------------7---------------|
E|---------------------------------|---------------------------------|
-| guitar 3:                       |                                 |
e|---------------------------------|---------------------------------|
B|-------------------10^(12)-------|-------------------------10^(12)-|
G|-9^(11)--9br(11)-7---------------|-9^(11)-9^(11)-9br(11)-7---------|
D|---------------------------------|---------------------------------|
A|---------------------------------|---------------------------------|
E|---------------------------------|---------------------------------|



e|-------------------------------------|
B|-------------------------------------|
G|-4---4-4-----4-4-4---9---9---9-9-1113|
D|-4---4-4-2h4-4-4-4-2-9---9---9-9-1113|
A|-2---2-2-----2-2-2-0-7---7---7-7-9-11|
E|-------------------------------------|
-|                                     |
e|-------------------------------------|
B|-3-------------9---------------------|
G|-4-------------9---------------------|
D|-4-------------9---------------------|
A|-2-------------7---------------------|
E|-------------------------------------|
-|                                     |
e|-------------------------------------|
B|-----------------10br(12)------------|
G|9^(11)-9br(11)-7---------9br(11)-7-9^(11)|
D|-------------------------------------|
A|-------------------------------------|
E|-------------------------------------|


e|-----------------------------------------------------------------|
B|-----------------------------------------------------------------|
G|-14----------------------------------------------4-4---7---9-----|
D|-14--------------6-------------------------------4-4---7---9-----|
A|-12--------------4---------------5---------------2-2---5---7-----|
E|---------------------------------3-------------------------------|
-|                                                                 |
e|---------------------------------3-------------------------------|
B|-2---------------5---------------3---------------4-----7---9-----|
G|-2---------------6---------------4---------------4-----7---9-----|
D|-2---------------6---------------5---------------4-----7---9-----|
A|-0-------------------------------5-------------------------------|
E|-----------------------------------------------------------------|
-|                                                                 |
e|-----------------------------------------------------------------|
B|-----------------------------------------------------------------|
G|-------------------------------------------------------7--9br(11)|
D|-7---------------6---------------5---------------9---------------|
A|-----------------------------------------------------------------|
E|-----------------------------------------------------------------|


e|-----------------------------------------------------------------|
B|-----------------------------------------------------------------|
G|-2-----------------------------------------------4-4---7---9-----|
D|-2---------------6-------------------------------4-4---7---9-----|
A|-0---------------4---------------5---------------2-2---5---7-----|
E|---------------------------------3-------------------------------|
-|                                                                 |
e|---------------------------------3-------------------------------|
B|-2---------------5---------------3---------------4-----7---9-----|
G|-2---------------6---------------4---------------4-----7---9-----|
D|-2---------------6---------------5---------------4-----7---9-----|
A|-0-------------------------------5-------------------------------|
E|-----------------------------------------------------------------|
-|                                                                 |
e|-----------------------------------------------------------------|
B|-----------------------------------------------------------------|
G|--------9br(11)\--------9br(11)\--------9br(11)\-------7---9\----|
D|-7---------------6---------------5---------------9---------------|
A|-----------------------------------------------------------------|
E|-----------------------------------------------------------------|


e|-----------------------------------------------------------------|
B|-----------------------------------------------------10--109-----|
G|---------------4-4-------------7-----7-----7---9---9-9---9-9-----|
D|-4---4-----4---4-4---4-----4---7-----7-----7---9---9-------------|
A|-4---4-----4---------2-----2-------------------------------------|
E|-----2-----2-----------------------------------------------------|
-|                                                                 |
e|---------------------7-----7-------------------------------------|
B|-----7-----7---------7-----7---------3-----3---------------------|
G|-----6-----6-------------------------2-----2------------9-11-9---|
D|---------------------------------------------------9h11----------|
A|-----------------------------------------------------------------|
E|-----------------------------------------------------------------|
-|                                                                 |
e|-----------------------------------------------------------------|
B|-----------------------------------------------------------------|
G|--------------------------------------------------------9-11-9~--|
D|---------------------------------------------------9h11----------|
A|-----------------------------------------------------------------|
E|-----------------------------------------------------------------|


e|-----------------------------------------------------------------|
B|-----------------------------------------------------------------|
G|---------------4-4-------------7-----7-----7---9---9-7---7---7---|
D|-4---4-----4---4-4---4-----4---7-----7-----7---9---9-7---7---7---|
A|-4---4-----4---------2-----2-------------------------------------|
E|-----2-----2-----------------------------------------------------|
-|                                                                 |
e|-----9-----9---------7-----7-------------------------------------|
B|-----7-----7---------7-----7---------3-----3---------5-----3-----|
G|-----6-----6-------------------------2-----2---------4-----2-----|
D|-----------------------------------------------------------------|
A|-----------------------------------------------------------------|
E|-----------------------------------------------------------------|
-|                                                                 |
e|-----------------------------------------------------------------|
B|----------------------------------------------------------12^(14)|
G|-----------------------------------------------------9-11--------|
D|------------------------------------------------9h11-------------|
A|-----------------------------------------------------------------|
E|-----------------------------------------------------------------|


e|-----------------------------------------------------------------|
B|-----------------------------------------------------------------|
G|-11------11------9-----------9-------9---9---9-------9---9-------|
D|-11------11------9---11--9---9-------9---9---9-------9---9-------|
A|-----------------------------------------------------------------|
E|-----------------------------------------------------------------|
-|                                                                 |
e|-----------------------------------------------------------------|
B|-----------------10--9---7---------------------------------------|
G|-11------11------------------9-------9---9---9---9---9---9-------|
D|-11------11------------------------------------------------------|
A|-----------------------------------------------------------------|
E|-----------------------------------------------------------------|
-|                                                                 |
e|-----------------------------------------------------------------|
B|-(14)------------------------------------------------------------|
G|-----------------------------------------------------------------|
D|-----------------------------------------------------------------|
A|-----------------------------------------------------------------|
E|-----------------------------------------------------------------|


e|-----------------------------------------------------------------|
B|-----------------------------------------------------------------|
G|-11------11------9-----------------------------------------------|
D|-11------11------9---11--9---------------------------------------|
A|---------------------------------------------0-------4-----------|
E|-----------------------------0-------2---------------------------|
-|                                                                 |
e|-----------------------------------------------------9-----------|
B|-----------------10--9---7-----------7-------10------------------|
G|-11------11------------------9-----------------------------------|
D|-11------11------------------------------------------------------|
A|-----------------------------------------------------------------|
E|-----------------------------------------------------------------|
-|                                                                 |
e|-----------------------------------------------------------------|
B|-12^(14)---------------------------------------------------------|
G|-----------------------------------------------------------------|
D|-----------------------------------------------------------------|
A|-----------------------------------------------------------------|
E|-----------------------------------------------------------------|


e|-----------------------------------------------------------------|
B|-----------------------------------------------------------------|
G|-11------11------9-----------9-------9-------7-------7---7-------|
D|-11------11------9---11--9---9-------9-------7-------7---7-------|
A|-----------------------------------------------------------------|
E|-----------------------------------------------------------------|
-|                                                                 |
e|-----------------------------------------------------------------|
B|-----------------10--9---7---------------------------------------|
G|-11------11------------------9-------9---------------------------|
D|-11------11------------------------------------------------------|
A|-----------------------------------------------------------------|
E|-----------------------------------------------------------------|
-|                                                                 |
e|-----------------------------------------------------------------|
B|-12^(14)---------------------------------------------------------|
G|-----------------------------------------------------------------|
D|-----------------------------------------------------------------|
A|-----------------------------------------------------------------|
E|-----------------------------------------------------------------|


e|-----------------------------------------------------------------|
B|-----------------------------------------------------------------|
G|-11------11------9-----------------------------------------------|
D|-11------11------9---11--9---------------------------------------|
A|---------------------------------------------0-------4-----------|
E|-----------------------------0-------2---------------------------|
-|                                                                 |
e|-----------------------------------------------------9-----------|
B|-----------------10--9---7-----------7-------10------------------|
G|-11------11------------------9-----------------------------------|
D|-11------11------------------------------------------------------|
A|-----------------------------------------------------------------|
E|-----------------------------------------------------------------|
-|                                                                 |
e|-----------------------------------------------------------------|
B|-12^(14)---------------------------------------------------------|
G|-----------------------------------------------------------------|
D|-----------------------------------------------------------------|
A|-----------------------------------------------------------------|
E|-----------------------------------------------------------------|


e|---------------------------------------------------------|
B|-10------10------8-----------8-------8-------------------|
G|-9-------9-------9-----------7-------7-------0---7-------|
D|-7-------7-------7-----------7-------7--------/9---9p7p0-|
A|---------------------------------------------------------|
E|---------------------------------------------------------|
-|                                                         |
e|---------------------------------------------------------|
B|---------------------------------------------------------|
G|-------------------------------------------------7-------|
D|----------------------------------------------/9---9p7p0-|
A|-0-------------------------------------------------------|
E|---------------------------------------------------------|
-|                                                         |
e|---------------------------------------------------------|
B|---------------------------------------------------------|
G|---------------------------------------------------------|
D|---------------------------------------------------------|
A|---------------------------------------------------------|
E|---------------------------------------------------------|


e|---------------------------------------------------------|
B|-10------10------8-----------8-------8-------------------|
G|-9-------9-------9-----------7-------7-------0---7-------|
D|-7-------7-------7-----------7-------7--------/9---9p7p0-|
A|---------------------------------------------------------|
E|---------------------------------------------------------|
-|                                                         |
e|---------------------------------------------------------|
B|---------------------------------------------------------|
G|-------------------------------------------------7-------|
D|----------------------------------------------/9---9p7p0-|
A|-0-------------------------------------------------------|
E|---------------------------------------------------------|
-|                                                         |
e|---------------------------------------------------------|
B|-------------------------------------------------14^(15)-|
G|-----------------------------------------12--14----------|
D|-------------------------------------14------------------|
A|---------------------------------------------------------|
E|---------------------------------------------------------|


e|---------------------------------------------------------|
B|-10------10------8-----------8-------8-------------------|
G|-9-------9-------9-----------7-------7-------0---7-------|
D|-7-------7-------7-----------7-------7--------/9---9p7p0-|
A|---------------------------------------------------------|
E|---------------------------------------------------------|
-|                                                         |
e|---------------------------------------------------------|
B|---------------------------------------------------------|
G|-------------------------------------------------7-------|
D|----------------------------------------------/9---9p7p0-|
A|-0-------------------------------------------------------|
E|---------------------------------------------------------|
-|                                                         |
e|---------------------------------------------------------|
B|-14^(15)-14~---------------------------------------------|
G|---------------------------------------------------------|
D|---------------------------------------------------------|
A|---------------------------------------------------------|
E|---------------------------------------------------------|


e|---------------------------------------------------------|
B|-10------10------8-----------8-------8-------------------|
G|-9-------9-------9-----------7-------7-------0---7-------|
D|-7-------7-------7-----------7-------7--------/9---9p7p0-|
A|---------------------------------------------------------|
E|---------------------------------------------------------|
-|                                                         |
e|---------------------------------------------------------|
B|---------------------------------------------------------|
G|-------------------------------------------------7-------|
D|----------------------------------------------/9---9p7p0-|
A|-0-------------------------------------------------------|
E|---------------------------------------------------------|
-|                                                         |
e|-------------------------------12^(14)-12br(14)----------|
B|------------------------------------------------12br(14)-|
G|---------------------------------------------------------|
D|---------------------------------------------------------|
A|---------------------------------------------------------|
E|---------------------------------------------------------|


e|-----------------------------------------------------------------|
B|-----------------------------------------------------10--109-----|
G|---------------4-4-------------7-----7-----7---9---9-9---9-9-----|
D|-4---4-----4---4-4---4-----4---7-----7-----7---9---9-------------|
A|-4---4-----4---------2-----2-------------------------------------|
E|-----2-----2-----------------------------------------------------|
-|                                                                 |
e|---------------------7-----7-------------------------------------|
B|-----7-----7---------7-----7---------3-----3---------------------|
G|-----6-----6-------------------------2-----2------------9-11-9---|
D|---------------------------------------------------9h11----------|
A|-----------------------------------------------------------------|
E|-----------------------------------------------------------------|
-|                                                                 |
e|-----------------------------------------------------------------|
B|-----------------------------------------------------------------|
G|--------------------------------------------------------9-11-9~--|
D|---------------------------------------------------9h11----------|
A|-----------------------------------------------------------------|
E|-----------------------------------------------------------------|


e|-----------------------------------------------------------------|
B|-----------------------------------------------------------------|
G|---------------4-4-------------7-----7-----7---9---9-7---7---7---|
D|-4---4-----4---4-4---4-----4---7-----7-----7---9---9-7---7---7---|
A|-4---4-----4---------2-----2-------------------------------------|
E|-----2-----2-----------------------------------------------------|
-|                                                                 |
e|-----9-----9---------7-----7-------------------------------------|
B|-----7-----7---------7-----7---------3-----3---------5-----3-----|
G|-----6-----6-------------------------2-----2---------4-----2-----|
D|-----------------------------------------------------------------|
A|-----------------------------------------------------------------|
E|-----------------------------------------------------------------|
-|                                                                 |
e|-----------------------------------------------------------------|
B|----------------------------------------------------------12^(14)|
G|-----------------------------------------------------9-11--------|
D|------------------------------------------------9h11-------------|
A|-----------------------------------------------------------------|
E|-----------------------------------------------------------------|


e|-----------------------------------------------------------------|
B|-----------------------------------------------------------------|
G|-11------11------9-----------9-------9---9---9-------9---9-------|
D|-11------11------9---11--9---9-------9---9---9-------9---9-------|
A|-----------------------------------------------------------------|
E|-----------------------------------------------------------------|
-|                                                                 |
e|-----------------------------------------------------------------|
B|-----------------10--9---7---------------------------------------|
G|-11------11------------------9-------9---9---9---9---9---9-------|
D|-11------11------------------------------------------------------|
A|-----------------------------------------------------------------|
E|-----------------------------------------------------------------|
-|                                                                 |
e|-----------------------------------------------------------------|
B|-(14)------------------------------------------------------------|
G|-----------------------------------------------------------------|
D|-----------------------------------------------------------------|
A|-----------------------------------------------------------------|
E|-----------------------------------------------------------------|


e|-----------------------------------------------------------------|
B|-----------------------------------------------------------------|
G|-11------11------9-----------------------------------------------|
D|-11------11------9---11--9---------------------------------------|
A|---------------------------------------------0-------4-----------|
E|-----------------------------0-------2---------------------------|
-|                                                                 |
e|-----------------------------------------------------9-----------|
B|-----------------10--9---7-----------7-------10------------------|
G|-11------11------------------9-----------------------------------|
D|-11------11------------------------------------------------------|
A|-----------------------------------------------------------------|
E|-----------------------------------------------------------------|
-|                                                                 |
e|-----------------------------------------------------------------|
B|-12^(14)---------------------------------------------------------|
G|-----------------------------------------------------------------|
D|-----------------------------------------------------------------|
A|-----------------------------------------------------------------|
E|-----------------------------------------------------------------|


e|-----------------------------------------------------------------|
B|-----------------------------------------------------------------|
G|-11------11------9-----------9-------9-------7-------7---7-------|
D|-11------11------9---11--9---9-------9-------7-------7---7-------|
A|-----------------------------------------------------------------|
E|-----------------------------------------------------------------|
-|                                                                 |
e|-----------------------------------------------------------------|
B|-----------------10--9---7---------------------------------------|
G|-11------11------------------9-------9---------------------------|
D|-11------11------------------------------------------------------|
A|-----------------------------------------------------------------|
E|-----------------------------------------------------------------|
-|                                                                 |
e|-----------------------------------------------------------------|
B|-12^(14)---------------------------------------------------------|
G|-----------------------------------------------------------------|
D|-----------------------------------------------------------------|
A|-----------------------------------------------------------------|
E|-----------------------------------------------------------------|


e|-----------------------------------------------------------------|
B|-----------------------------------------------------------------|
G|-11------11------9-----------------------------------------------|
D|-11------11------9---11--9---------------------------------------|
A|---------------------------------------------0-------4-----------|
E|-----------------------------0-------2---------------------------|
-|                                                                 |
e|-----------------------------------------------------9-----------|
B|-----------------10--9---7-----------7-------10------------------|
G|-11------11------------------9-----------------------------------|
D|-11------11------------------------------------------------------|
A|-----------------------------------------------------------------|
E|-----------------------------------------------------------------|
-|                                                                 |
e|-----------------------------------------------------------------|
B|-12^(14)---------------------------------------------------------|
G|-----------------------------------------------------------------|
D|-----------------------------------------------------------------|
A|-----------------------------------------------------------------|
E|-----------------------------------------------------------------|



guitar 1:
e|-----------------4-----------------------------------------------|
B|-2---------------5---------------3---------------7-------9-------|
G|-2---------------6---------------4---------------7-------9-------|
D|-2---------------6---------------5---------------7-------9-------|
A|---------------------------------5-------------------------------|
E|-----------------------------------------------------------------|
-| guitar 2:                                                       |
e|-----------------------------------------------------------------|
B|----------14--------------14--------------12-----7-------9-------|
G|-------14--------------14--------------12--------7-------9-------|
D|----14--------------14--------------12-----------7-------9-------|
A|-12--------------12--------------10------------------------------|
E|-----------------------------------------------------------------|


guitar 1:
e|-----------------4-----------------------------------------------|
B|-2---------------5---------------3---------------7-------9-------|
G|-2---------------6---------------4---------------7-------9-------|
D|-2---------------6---------------5---------------7-------9-------|
A|---------------------------------5-------------------------------|
E|-----------------------------------------------------------------|
-| guitar 2:                                                       |
e|-----------------------------------------------------------------|
B|----------14--------------14--------------12-----7-------9-------|
G|-------14--------------14--------------12--------7-------9-------|
D|----14--------------14--------------12-----------7-------9-------|
A|-12--------------12--------------10------------------------------|
E|-----------------------------------------------------------------|
-| guitar 3:                                                       |
e|-----------------------------------------------------------------|
B|-----------------------------------------------------------------|
G|--------------------------------------------------------9br(11)\-|
D|-----------------------------------------------------------------|
A|-----------------------------------------------------------------|
E|-----------------------------------------------------------------|


e|-----------------------------------------------------------------|
B|-----------------------------------------------------------------|
G|-2-2-2-2-2-2-2-2-6-6-6-6-6-6-6-6-----------------4-4---7---9-----|
D|-2-2-2-2-2-2-2-2-6-6-6-6-6-6-6-6-5-5-5-5-5-5-5-5-4-4---7---9-----|
A|-0-0-0-0-0-0-0-0-4-4-4-4-4-4-4-4-5-5-5-5-5-5-5-5-2-2---5---7-----|
E|---------------------------------3-3-3-3-3-3-3-3-----------------|
-|                                                                 |
e|-----------------------------------------------------------------|
B|-2-2-2-2-2-2-2-2-5-5-5-5-5-5-5-5-3-3-3-3-3-3-3-3-4-----7---9-----|
G|-2-2-2-2-2-2-2-2-6-6-6-6-6-6-6-6-4-4-4-4-4-4-4-4-4-----7---9-----|
D|-2-2-2-2-2-2-2-2-6-6-6-6-6-6-6-6-5-5-5-5-5-5-5-5-4-----7---9-----|
A|---------------------------------5-5-5-5-5-5-5-5-----------------|
E|-----------------------------------------------------------------|
-|                                                                 |
e|-----------------------------------------------------------------|
B|-----------------------------------------------------------------|
G|--------9br(11)\--------9br(11)\--------9br(11)\-------7--9br(11)|
D|-7---------------6---------------5---------------9---------------|
A|-----------------------------------------------------------------|
E|-----------------------------------------------------------------|



e|-----------------------------------------------------------------|
B|-----------------------------------------------------------------|
G|-2-2-2-2-2-2-2-2-6-6-6-6-6-6-6-6-----------------4-4---7---9-----|
D|-2-2-2-2-2-2-2-2-6-6-6-6-6-6-6-6-5-5-5-5-5-5-5-5-4-4---7---9-----|
A|-0-0-0-0-0-0-0-0-4-4-4-4-4-4-4-4-5-5-5-5-5-5-5-5-2-2---5---7-----|
E|---------------------------------3-3-3-3-3-3-3-3-----------------|
-|                                                                 |
e|-----------------------------------------------------------------|
B|-2-2-2-2-2-2-2-2-5-5-5-5-5-5-5-5-3-3-3-3-3-3-3-3-4-----7---9-----|
G|-2-2-2-2-2-2-2-2-6-6-6-6-6-6-6-6-4-4-4-4-4-4-4-4-4-----7---9-----|
D|-2-2-2-2-2-2-2-2-6-6-6-6-6-6-6-6-5-5-5-5-5-5-5-5-4-----7---9-----|
A|---------------------------------5-5-5-5-5-5-5-5-----------------|
E|-----------------------------------------------------------------|
-|                                                                 |
e|-----------------------------------------------------------------|
B|-----------------------------------------------------------------|
G|--------9br(11)\--------9br(11)\--------9br(11)\-------7--9br(11)|
D|-7---------------6---------------5---------------9---------------|
A|-----------------------------------------------------------------|
E|-----------------------------------------------------------------|



e|-----------------------------------------------------------------|
B|-----------------------------------------------------------------|
G|-11------11------9-----------9-------9---9---9-------9---9-------|
D|-11------11------9---11--9---9-------9---9---9-------9---9-------|
A|-----------------------------------------------------------------|
E|-----------------------------------------------------------------|
-|                                                                 |
e|-----------------------------------------------------------------|
B|-----------------10--9---7---------------------------7-----7-----|
G|-11------11------------------9-----9^(11)-9------7---7-7---7-7---|
D|-11------11------------------9-----9^(11)-9------7---7-7---7-7---|
A|-----------------------------------------------------------------|
E|-----------------------------------------------------------------|
-|                                                                 |
e|-----------------------------------------------------------------|
B|-12^(14)---------------------------------------------------------|
G|-----------------------------------------------------------------|
D|-----------------------------------------------------------------|
A|-----------------------------------------------------------------|
E|-----------------------------------------------------------------|


e|-----------------------------------------------------------------|
B|-----------------------------------------------------------------|
G|-11------11------9-----------------------------------------------|
D|-11------11------9---11--9---------------------------------------|
A|---------------------------------------------0-------4-----------|
E|-----------------------------0-------2---------------------------|
-|                                                                 |
e|-----------------------------------------------------9-----------|
B|-----------------10--9---7-----------7-------10------10----------|
G|-11------11------------------9-----------------------------------|
D|-11------11------------------------------------------------------|
A|-----------------------------------------------------------------|
E|-----------------------------------------------------------------|
-|                                                                 |
e|-----------------------------------------------------------------|
B|-12^(14)---------------------------------------------------------|
G|-----------------------------------------------------------------|
D|-----------------------------------------------------------------|
A|-----------------------------------------------------------------|
E|-----------------------------------------------------------------|


e|-----------------------------------------------------------------|
B|-----------------------------------------------------------------|
G|-11------11------9-----------9-------9-------7-------7---7-------|
D|-11------11------9---11--9---9-------9-------7-------7---7-------|
A|-----------------------------------------------------------------|
E|-----------------------------------------------------------------|
-|                                                                 |
e|-----------------------------------------------------------------|
B|-----------------10--9---7---------------------------7-----7-----|
G|-11------11------------------9-----9^(11)-9------7---7-7---7-7---|
D|-11------11------------------9-----9^(11)-9------7---7-7---7-7---|
A|-----------------------------------------------------------------|
E|-----------------------------------------------------------------|
-|                                                                 |
e|-----------------------------------------------------------------|
B|-12^(14)---------------------------------------------------------|
G|-----------------------------------------------------------------|
D|-----------------------------------------------------------------|
A|-----------------------------------------------------------------|
E|-----------------------------------------------------------------|


e|-----------------------------------------------------------------|
B|-----------------------------------------------------------------|
G|-11------11------9-----------------------------------------------|
D|-11------11------9---11--9---------------------------------------|
A|---------------------------------------------0-------4-----------|
E|-----------------------------0-------2---------------------------|
-|                                                                 |
e|-----------------------------------------------------9-----------|
B|-----------------10--9---7-----------7-------10------10----------|
G|-11------11------------------9-----------------------------------|
D|-11------11------------------------------------------------------|
A|-----------------------------------------------------------------|
E|-----------------------------------------------------------------|
-|                                                                 |
e|-----------------------------------------------------------------|
B|-12^(14)---------------------------------------------------------|
G|-----------------------------------------------------------------|
D|-----------------------------------------------------------------|
A|-----------------------------------------------------------------|
E|-----------------------------------------------------------------|


e|-----------------------------------------------------------------|
B|-----------------------------------------------------------------|
G|-11------11------9-----------9-------9---9---9-------9---9-------|
D|-11------11------9---11--9---9-------9---9---9-------9---9-------|
A|-----------------------------------------------------------------|
E|-----------------------------------------------------------------|
-|                                                                 |
e|-----------------------------------------------------------------|
B|-----------------10--9---7---------------------------7-----7-----|
G|-11------11------------------9-----9^(11)-9------7---7-7---7-7---|
D|-11------11------------------9-----9^(11)-9------7---7-7---7-7---|
A|-----------------------------------------------------------------|
E|-----------------------------------------------------------------|
-|                                                                 |
e|-----------------------------------------------------------------|
B|-19^(21)---------------------------------------------------------|
G|-----------------------------------------------------------------|
D|-----------------------------------------------------------------|
A|-----------------------------------------------------------------|
E|-----------------------------------------------------------------|


e|-----------------------------------------------------------------|
B|-----------------------------------------------------------------|
G|-11------11------9-----------------------------------------------|
D|-11------11------9---11--9---------------------------------------|
A|---------------------------------------------0-------4-----------|
E|-----------------------------0-------2---------------------------|
-|                                                                 |
e|-----------------------------------------------------9-----------|
B|-----------------10--9---7-----------7-------10------10----------|
G|-11------11------------------9-----------------------------------|
D|-11------11------------------------------------------------------|
A|-----------------------------------------------------------------|
E|-----------------------------------------------------------------|
-|                                                                 |
e|-----------------------------------------------------------------|
B|-19^(21)---------------------------------------------------------|
G|-----------------------------------------------------------------|
D|-----------------------------------------------------------------|
A|-----------------------------------------------------------------|
E|-----------------------------------------------------------------|


e|-----------------------------------------------------------------|
B|-----------------------------------------------------------------|
G|-11------11------9-----------9-------9-------7-------7---7-------|
D|-11------11------9---11--9---9-------9-------7-------7---7-------|
A|-----------------------------------------------------------------|
E|-----------------------------------------------------------------|
-|                                                                 |
e|-----------------------------------------------------------------|
B|-----------------10--9---7---------------------------7-----7-----|
G|-11------11------------------9-----9^(11)-9------7---7-7---7-7---|
D|-11------11------------------9-----9^(11)-9------7---7-7---7-7---|
A|-----------------------------------------------------------------|
E|-----------------------------------------------------------------|
-|                                                                 |
e|-----------------------------------------------------------------|
B|-19^(21)---------------------------------------------------------|
G|-----------------------------------------------------------------|
D|-----------------------------------------------------------------|
A|-----------------------------------------------------------------|
E|-----------------------------------------------------------------|


e|-----------------------------------------------------------------|
B|-----------------------------------------------------------------|
G|-11------11------9-----------------------------------------------|
D|-11------11------9---11--9---------------------------------------|
A|---------------------------------------------0-------4-----------|
E|-----------------------------0-------2---------------------------|
-|                                                                 |
e|-----------------------------------------------------9-----------|
B|-----------------10--9---7-----------7-------10------------------|
G|-11------11------------------9-----------------------------------|
D|-11------11------------------------------------------------------|
A|-----------------------------------------------------------------|
E|-----------------------------------------------------------------|
-|                                                                 |
e|-----------------------------------------------------------------|
B|-19^(21)---------------------------------------------------------|
G|-----------------------------------------------------------------|
D|-----------------------------------------------------------------|
A|-----------------------------------------------------------------|
E|-----------------------------------------------------------------|



guitar 1:
e|---------------------------------------------------------|
B|---------------------------------------------------------|
G|---------------------------------------------------------|
D|---------------------------------------------------------|
A|-------------0---4-----------------------0---4-----------|
E|-0---2-----------------------0---2-----------------------|
-| guitar 2:                                               |
e|-----------------9---------------------------9-----------|
B|-----7-------10------------------7-------10--------------|
G|-9---------------------------9---------------------------|
D|---------------------------------------------------------|
A|---------------------------------------------------------|
E|---------------------------------------------------------|


e|---------------------------------------------------------|
B|-----------------------------2---------------------------|
G|-----------------------------2---------------------------|
D|-----------------------------2---------------------------|
A|-------------0---4-----------0---------------------------|
E|-0---2---------------------------------------------------|
-|                                                         |
e|-----------------9-----------12--------------------------|
B|-----7-------10--------------10--------------------------|
G|-9-------------------------------------------------------|
D|---------------------------------------------------------|
A|---------------------------------------------------------|
E|---------------------------------------------------------|


************************************

| /   slide up
| \   slide down
| h   hammer-on
| p   pull-off
| ~   vibrato
| +   harmonic
| x   Mute note
| b   Bend
| pb  Pre-bend
| br  Bend release
| pbr Pre-bend release
| brb Bend release bend

************************************
Tap to rate this tab
 
# A B C D E F G H I J K L M N O P Q R S T U V W X Y Z