Song name
# A B C D E F G H I J K L M N O P Q R S T U V W X Y Z

Alice Cooper - No More Mr Nice Guy Live tab

Alice Cooper
No More More MR Nice Guy (Live)
jacobsmithuk@live.co.uk
|----------------|-------------|-------------|------------------|
|-8--8--6--6--6--|-------------|-------------|------------------|
|-7--7--7--5--5--|-0---5-------|--------7-9b-|-----------7-9b---|
|-5--5--5--5--5--|--/7---5p7-0-|-7b-7-5------|-7b-7b-7-5--------|
|----------------|-------------|-------------|------------------|
|----------------|-------------|-------------|------------------|

|--------------------|
|--------------------|
|--------7-9b--------|
|-7b-7-5------7b-5-7-|
|--------------------|
|--------------------|
Tap to rate this tab
 
# A B C D E F G H I J K L M N O P Q R S T U V W X Y Z