Song name
# A B C D E F G H I J K L M N O P Q R S T U V W X Y Z

Alice Cooper - Schools Out tab

Key
/= slide
b= bend
~= Vibrato


Intro
----------------------------------------------------------|
----------------------------------------------------------|
--------14---------12--------14--12~----------------------|
--------14---------12--------14------14-13-12-------------|
-14--14-----14--14----14--14------------------------------|
-12--12-----12--12----12--12------------------------------|

Pre chorus
----------------------------------------------------------|
----------------------------------------------------------|
--------------------------8-8-8---8---8----8-8------------|
--3--3--3---3-3/--7/-8----8-8-8---8---8----8-8------------|
--5--5--5---5-5/--5/-6----6-6-6---6---6----6-6------------|
----------------------------------------------------------|

Chorus
----------------------------------------------------------|
----------------------------------------------------------|
----------------------------------------------------------|
----------------------------------------------------------|
-5/---8/---10---3--3--------------------------------------|
-3/---6/---8----1--5--------------------------------------|

Solo
---------12b-12b------------------------------------------|
---------15b-15b--15--12----------------------------------|
-------------------------14-14~---------------------------|
----------------------------------------------------------|
----------------------------------------------------------|
----------------------------------------------------------|

--12-12-12/-10-12-12-12/-10-12-12-12--12-11-10-9-8-7------|
--12-12-12/-10-12-12-12/-10-12-12-12--12-11-10-9-8-7------|
----------------------------------------------------------|
----------------------------------------------------------|
----------------------------------------------------------|
----------------------------------------------------------|

--------12-12--15b-15b-----12-----------------------------|
--10-12-----------------12--------------------------------|
----------------------------------------------------------|
----------------------------------------------------------|
----------------------------------------------------------|
----------------------------------------------------------|

Fills

1st chorus
1.                         2.
----------------------------------------------------------|
--5b------------------------------------------------------|
--3b-------------------------5b-3~------------------------|
----------------------------------------------------------|
----------------------------------------------------------|
----------------------------------------------------------|
3.
----------------------------------------------------------|
-----15b-15b-15b-15b--------------------------------------|
------------------------9b-9b-----------------------------|
----------------------------------------------------------|
----------------------------------------------------------|
----------------------------------------------------------|

2nd Chorus

1.
----------------------------------------------------------|
---13b-13b-13b-11----11-11~-------------------------------|
------------------12--------------------------------------|
----------------------------------------------------------|
----------------------------------------------------------|
----------------------------------------------------------|
2.
-------20b-20b-20b-20b-20b-20b-20b-20b--20-18----18--------|
----------------------------------------------20----20-20~-|
-----------------------------------------------------------|
-----------------------------------------------------------|
-----------------------------------------------------------|
-----------------------------------------------------------|

3d Chorus

1.
-------15-----15-----15-----15-----15---------------------|
---15b----15b----15b----15b----15b----15b-----------------|
----------------------------------------------------------|
----------------------------------------------------------|
----------------------------------------------------------|
----------------------------------------------------------|
2.
------15b-15b--15-13-----13-15-15~------------------------|
----------------------15----------------------------------|
----------------------------------------------------------|
----------------------------------------------------------|
----------------------------------------------------------|
----------------------------------------------------------|

3.
---20b-20b-20b-20b-18----18-------------------------------|
----------------------20----20~---------------------------|
----------------------------------------------------------|
----------------------------------------------------------|
----------------------------------------------------------|
----------------------------------------------------------|
Tap to rate this tab
# A B C D E F G H I J K L M N O P Q R S T U V W X Y Z