Song name
# A B C D E F G H I J K L M N O P Q R S T U V W X Y Z

Alice Cooper - Its Much Too Late tab

Song: It's Much Too Late
Artist: Alice Cooper
Album: Dragontown

Tuning: Standard

Create by (s)AINT

^ - bend up & down
b - Bend up
~ - tremolo
/ - slide up
______________________________________

e------------------------------------------------------------|
B----------------------------12---12-14-15-14-12-------------|
G-9^-9^-9^-7------7^~-7--------------------------13----------|
D------------9--8-------8--7-------------------------14------|
A--------------------------------------------------------15--|
E------------------------------------------------------------|


e---------10-12----10-12----10-14-12-10-12-10--------10-14-12-10-12-10-|
B-/-10-12-------12-------12-------------------12--11-------------------|
G----------------------------------------------------------------------|
D----------------------------------------------------------------------|
A----------------------------------------------------------------------|
E----------------------------------------------------------------------|


e------10-14-12-10-12-10----/-17-19---------------|
B-11-10------------------10----------18^-15-17-15-|
G-------------------------------------------------|
D-------------------------------------------------|
A-------------------------------------------------|
E-------------------------------------------------|


e-----17--------------------17-------------19--17-15-14-15-12-14-12---------|
B-18b----18b--18^-15----18b----17~--18^-15--------------------------15------|
G--------------------16-------------------------------------------------15--|
D---------------------------------------------------------------------------|
A---------------------------------------------------------------------------|
E---------------------------------------------------------------------------|


Try!
Tap to rate this tab
# A B C D E F G H I J K L M N O P Q R S T U V W X Y Z