Song name
# A B C D E F G H I J K L M N O P Q R S T U V W X Y Z

Alice Cooper - Feed My Frankenstein tab

----------------Feed My Frankenstein - Alice Cooper-------------------------


Tabbed by:AlexHill
Email: gigidygigidyalex@hotmail.com

Tuning: STANDARD
Intro
e|-----------------------------------------------------------------------|
B|-----------------------------------------------------------------------|
G|-777--------------------------------------------------7-7-7-9-7--------|
D|-777-------7-9-7----------7-11-9-11------7-9-7--------7-7-7-9-7--------|
A|-999---9-9-5-7-5-9----9-9-5-9--7-9---9-9-5-7-5-9--9999-9-9-9-----------|
E|-------7-7-------7----7-7------------7-7-------7-----------------------|

verse
e|-------------------------------------------------------------------------|
B|-------------------------------------------------------------------------|
G|-------------------------------------------------------------------------|
D|-------------------------9-9-12^--9-99-12^--9-9-12^----------------------|
A|--9-9----9-99---9-9-9----7-7-10^--7-77-10^--7-7-10^--12-12-12121212------|
E|--7-7----7-77---7-7-7--------------------------------10-10-10101010------|

e|-------------------------------------------------------------------------|
B|-------------------------------------------------------------------------|
G|-------------------------------------------------------------------------|
D|---9-9-12^--9-99-12^--9-9-12^--------------------------------------------|
A|---7-7-10^--7-77-10^--7-7-10^--12-12-12121212----------------------------|
E|-------------------------------10-10-10101010----------------------------|

e|-------------------------------------------------------------------------|
B|-------------------------------------------------------------------------|
G|-------------------------------------------------------------------------|
D|---9-9-12^--9-99-12^--12-13-14-15-16-17-18-19----------------------------|
A|---7-7-10^--7-77-10^--10-11-12-13-14-15-16-17----------------------------|
E|-------------------------------------------------------------------------|

The Chorus is the intro

     Repeat for awhile
| /  slide up
| \  slide down
| h  hammer-on
| p  pull-off
| ~  vibrato
| +  harmonic
| x  Mute note
| ^  Bend
===============================================================================
Tap to rate this tab
 
# A B C D E F G H I J K L M N O P Q R S T U V W X Y Z