Song name
# A B C D E F G H I J K L M N O P Q R S T U V W X Y Z

Alice Cooper - Between High School And Old School tab

This is my very first tab I have put online. i bought the eyes of alice cooper
recently and wanted to get the tabs but there aren't any. so here's one. :)

INTRO

e|---------------------------------------------------------------------------|
B|---------------------------------------------------------------------------|
G|---------------------------------------------------------------------------|
D|----------5-6-6-8-8-------5-4-4-4------------------------------------------|
A|--6-6-6-6-3-4-4-6-6-4-4-4-3-2-2-2------------------------------------------|
E|--4-4-4-4-----------2-2-2--------------------------------------------------|


Verse

e|---------------------------------------------------------------------------|
B|---------------------------------------------------------------------------|
G|---------------------------------------------------------------------------|
D|-----------5-6-6-6-6---------5-4-4-4---------------------------------------|
A|--6-6-6-6--3-4-4-4-4-4-4-4-4-3-2-2-2---------------------------------------|
E|--4-4-4-4------------2-2-2-2-----------------------------------------------|


Bridge

e|---------------------------------------------------------------------------|
B|---------------------------------------------------------------------------|
G|---------------------------------------------------------------------------|
D|---------------------------------------------------------------------------|
A|--6-------------4----------------------------------------------------------|
E|--4-------------2----------------------------------------------------------|


Chorus

e|---------------------------------------------------------------------------|
B|---------------------------------------------------------------------------|
G|---------------------------------------------------------------------------|
D|------------------6-6-6-6-6-6-6-6------------------------------------------|
A|--6-6-6-6-6-6-6-6-4-4-4-4-4-4-4-4-8-8-8-8-8-8-8-8-7-7-7-7-7-7-7-7----------|
E|--4-4-4-4-4-4-4-4-----------------6-6-6-6-6-6-6-6-5-5-5-5-5-5-5-5----------|


interlude bit

e|---------------------------------------------------------------------------|
B|---------------------------------------------------------------------------|
G|---------------------------------------------------------------------------|
D|---------------------------------------------------------------------------|
A|--6-8-6-8-6-8-6-8-6-8------------------------------------------------------|
E|--4-6-4-6-4-6-4-6-4-6------------------------------------------------------|


cheers. if any one else has this albumn plzz could they put the other songs
of this albumn on.  l8r.. bobo_bobs
Tap to rate this tab
# A B C D E F G H I J K L M N O P Q R S T U V W X Y Z