Song name
# A B C D E F G H I J K L M N O P Q R S T U V W X Y Z

Alice Cooper - Steel That Car tab

Ok this is my second tab for the Dirty Diamonds Album.
Any problems email me at Matthew_Mitchell519@hotmail.com

enjoy!

Artist: Alice Cooper
Album: Dirty Diamonds
Song: Steel That Car

Listen for the timeing

Intro

-------------------------------------|
-------------------------------------|
----9---9---9------------------------|
----9-9-9-9-9--Repeat as Necessary --|
----7-9-7-9-7------------------------|
------7---7--------------------------|


verse
                                           just can't help my self
--------------------------------------------/---------------|
--------------------------------------------/---------------|
---------------------------------77---------/-777-999-------|
---------------------------------77-77------/-777-999-------|
---------------------------------55-77------/-555-777-------|
--22-33-50-0000--22-33-50-0000------55------/---------------|


chorus

--------------------------/------------------------------------|
--------------------------/------------------------------------|
11-11-11-----999---11-----/------------------4-------7---------|
11-11-11-999-999-9-11-----/--4-------7-------4-ring--7-ring----|
-9--9--9-999-777-9--9-----/--4-ring--7-ring--2-------5---------|
---------777-----7--------/--2-------5-------------------------|


Sorry no solo


hope it helps
Tap to rate this tab
# A B C D E F G H I J K L M N O P Q R S T U V W X Y Z