Guitaretab - guitar tabs
Song name
# A B C D E F G H I J K L M N O P Q R S T U V W X Y Z

Alice Cooper - Pick Up The Bones tab

i only tab down the rythm guitar
it took to long time so i dont put down solo guitar maybe i do it another day

 (Let Ring)
e:-----------------|----------------|I x4
B:-----------------|----------------|I
G:-----0-------0---|-----0----------|I
D:---4---4---4---4-|---4---4--------|I
A:-2-------0-------|----------------|I
E:-----------------|-0--------------|I

  (Let Ring)
e:-----------------|----------------|I x4
B:-----------------|----------------|I
G:-----0-------0---|-----0----------|I
D:---4---4---4---4-|---4---4--------|I
A:-2-------0-------|----------------|I
E:-----------------|-0--------------|I
 


   (Let Ring)
e:-----------------|----------------|I x2
B:-----------------|----------------|I
G:-----0-------0---|-----0----------|I
D:---4---4---4---4-|---4---4--------|I
A:-2-------0-------|----------------|I
E:-----------------|-0--------------|I

 (Let Ring)
e:-----------------|----------------|I x4
B:-----------------|----------------|I
G:-----0-------0---|-----0----------|I
D:---4---4---4---4-|---4---4--------|I
A:-2-------0-------|----------------|I
E:-----------------|-0--------------|I


e:-----------------|-----------------|----------------|-----------------|Ix2
B:-----------------|-----------------|----------------|-----------------|I
G:-----------------|-----------------|----------------|-----------------|I
D:-6-6-6-6-6-6-6-6-|-----------------|----------------|-6-6-6-6-6-6-6-6-|I
A:-4-4-4-4-4-4-4-4-|-2-2-2-2-2-2-2-2-|-4-4-4-4-4-4-4-4|-4-4-4-4-4-4-4-4-|I
E:-----------------|-0-0-0-0-0-0-0-0-|-2-2-2-2-2-2-2-2|-----------------|I

    o______o let the tone ring from the first over the second
e:-------|--------------|I 
B:-------|--------------|I
G:-------|--------------|I
D:-6-----|-6------------|I
A:-4-----|-4------------|I
E:-------|--------------|I

 (Let Ring)
e:-----------------|----------------|I x8
B:-----------------|----------------|I
G:-----0-------0---|-----0----------|I
D:---4---4---4---4-|---4---4--------|I
A:-2-------0-------|----------------|I
E:-----------------|-0--------------|I
[ Tab from: http://www.guitaretab.com/a/alice-cooper/76978.html ]
e:-----------------|-----------------|----------------|-----------------|Ix2
B:-----------------|-----------------|----------------|-----------------|I
G:-----------------|-----------------|----------------|-----------------|I
D:-6-6-6-6-6-6-6-6-|-----------------|----------------|-6-6-6-6-6-6-6-6-|I
A:-4-4-4-4-4-4-4-4-|-2-2-2-2-2-2-2-2-|-4-4-4-4-4-4-4-4|-4-4-4-4-4-4-4-4-|I
E:-----------------|-0-0-0-0-0-0-0-0-|-2-2-2-2-2-2-2-2|-----------------|I


 before the solo
e:------------|-----------------|I x4
B:------------|-----------------|I
G:------------|-----------------|I
D:---4--------|---4-------------|I
A:-6-2-4-5-4--|-6-2-4--5--5-----|I
E:-4---2-3-2--|-4---2--3--3-----|I

 under the solo
e:-----------------|-----------------|----------------|-----------------|Ix2
B:-----------------|-----------------|----------------|-----------------|I
G:-----------------|-----------------|----------------|-----------------|I
D:-6-6-6-6-6-6-6-6-|-----------------|----------------|-6-6-6-6-6-6-6-6-|I
A:-4-4-4-4-4-4-4-4-|-2-2-2-2-2-2-2-2-|-4-4-4-4-4-4-4-4|-4-4-4-4-4-4-4-4-|I
E:-----------------|-0-0-0-0-0-0-0-0-|-2-2-2-2-2-2-2-2|-----------------|I


e:-----------------|-----------------|----------------|-----------------|Ix2
B:-----------------|-----------------|----------------|-----------------|I
G:-----------------|-----------------|----------------|-----------------|I
D:-6-6-6-6-6-6-6-6-|-----------------|----------------|-6-6-6-6-6-6-6-6-|I
A:-4-4-4-4-4-4-4-4-|-2-2-2-2-2-2-2-2-|-4-4-4-4-4-4-4-4|-4-4-4-4-4-4-4-4-|I
E:-----------------|-0-0-0-0-0-0-0-0-|-2-2-2-2-2-2-2-2|-----------------|I

    o______o let the tone ring from the first over the second
e:-------|--------------|I 
B:-------|--------------|I
G:-------|--------------|I
D:-6-----|-6------------|I
A:-4-----|-4------------|I
E:-------|--------------|I


 (Let Ring)
e:-----------------|----------------|I x6
B:-----------------|----------------|I
G:-----0-------0---|-----0----------|I
D:---4---4---4---4-|---4---4--------|I
A:-2-------0-------|----------------|I
E:-----------------|-0--------------|I

it goes something like that
Related for Pick Up The Bones tab
Pick Up The Bones chords by Alice Cooper