Song name
# A B C D E F G H I J K L M N O P Q R S T U V W X Y Z

Alice Cooper - I Love America tab

ALICE COOPER: I Love America
From his worst (but the Haunting Epic) "DaDa" album (1983)

Tabbed by: Rod Zombie (rodzombie_89@hotmail.com)


INTRO:

Gtr. 1
|-------------------------------|
|-------------------------------|
|-5~~~--------------------------|
|-5~~~--------------------------|
|-3~~~--------------------------|
|-------------------------------|
Gtr. 2                          |
|-------------------------------|
|-------------------------------|
|-------------------------------|
|-----10~-12-14^--10h12-10~~~~--|
|-------------------------------|
|-------------------------------|


Gtr. 1
|-------------------------------|
|-------------------------------|
|-0-2~~~------------------------|
|-0-2~~~------------------------|
|---0~~~------------------------|
|-3-----------------------------|
Gtr. 2                          |
|-------------------------------|
|-------------------------------|
|-------------------------------|
|-----------7~-9-9^--7h9-7~~~~--|
|-------------------------------|
|-------------------------------|


Gtr. 1
|-------------------------------|
|-------------------------------|
|-------------------------------|
|-2-3~~~------------------------|
|-2-3~~~------------------------|
|-0-1~~~------------------------|
Gtr. 2                          |
|-------------------------------|
|-------------------------------|
|--10~-10-12-12^--10h1210~------|
|-------------------------------|
|-------------------------------|
|-------------------------------|


Gtr. 1
|-------------------------------|
|-------------------------------|
|-2-3~-----5~~------------------|
|-2-3~-----5~~------------------|
|-0-1~-----3~~------------------|
|-------------------------------|
Gtr. 2                          |
|-------------------------------|
|-12-11~~--14-13----------------|
|-------------------------------|
|-------------------------------|
|-------------------------------|
|-------------------------------|
Tap to rate this tab
# A B C D E F G H I J K L M N O P Q R S T U V W X Y Z