Song name
# A B C D E F G H I J K L M N O P Q R S T U V W X Y Z

Alice In Chains - Love Hate Love Live tab

Title: Love, Hate, Love (Music: Cantrell; Lyrics: Staley)
Artist: Alice in Chains
Album: Live (Released 12/05/2000: Columbia)

Tabbed By: Aoshikakashi

This is the Intro (or so I think) to Alice in Chains' epic "Love, Hate, Love" that Jerry 
was known to play live before starting the regular introduction. You guys can figure 
the tempo and everything, but it should be pretty obvious.

Tuning: Eb


|----------0---------------------0--------------------0-----------------------0----------|
|--------9---9-----9-----------9---9----9----------10---10----10-----------10---10----10-|
|------10------10-----------10------10----------11--------11------------11--------11-----|
|----0-----------0--------0-----------0--------0-------------0--------0-------------0----|
|----------------------------------------------------------------------------------------|
|----------------------------------------------------------------------------------------|

 __________________________________________________________________(Let Ring)
|----------0---------------------0--------------------0---------------0~~~---------(0)---|
|--------9---9-----9-----------9---9----9----------10---10----10------10~~---------(10)--|
|------10------10-----------10------10----------11--------11----------11~~---------(11)--|
|----0-----------0--------0-----------0--------0-------------0--------0~~~---------(0)---|
|----------------------------------------------------------------------------------------|
|----------------------------------------------------------------------------------------|

Have fun with it, R.I.P. Layne!
Tap to rate this tab
 
# A B C D E F G H I J K L M N O P Q R S T U V W X Y Z