Song name
# A B C D E F G H I J K L M N O P Q R S T U V W X Y Z

Alice In Chains - Man In A Box tab

                              man in  a box
                                  solo
                              tunning:EbAbDbGbBbEb(half step down)
                               by josh reid jlrthetourchered2006@yahoo.com


|--------------------------------------------------------------------------|
|--------------------------------------------------------------------------|
|-----------------7---9-9^----9--7-----------------------------------------|
|---------7---9---------------------9-8-7-----7--7br-----------------------|
|--5h7------------------------------------10-------------------------------|
|--------------------------------------------------------------------------|
 Using Wah


|--------------------------------------------------------------12-12--15fb-|
|-------------------------------------/12--12p15-----12p15-----------------|
|-14^--14-14-14-14-14-14r--12h14-----------------14--------14--------------|
|--------------------------------14----------------------------------------|
|--------------------------------------------------------------------------|
|--------------------------------------------------------------------------|
 bend 14 slowly while using wah slowly

|-----------------------------------------------------15--17^--17-15-------|
|--------------------------------------------15--17------------------17-15-|
|------------------------12--14-14^--12------------------------------------|
|----x-x--5------12--14-----------------14---------------------------------|
|----x-x----7--------------------------------------------------------------|
|-3------------------------------------------------------------------------|

|--------------------------------------------------------------------------|
|--------------------------------------------------------------------------|
|-16-15-14^--12h14---------------------------------------------------------|
|------------------14------------------------------------------------------|
|--------------------------------------------------------------------------|
|--------------------------------------------------------------------------|

thats pretty much it. I compromised on the last part. any changes r welcomed. 
Legend:
x- muted
^- bend
br- bend release
fb- full bend








Tap to rate this tab
 
# A B C D E F G H I J K L M N O P Q R S T U V W X Y Z