Song name
# A B C D E F G H I J K L M N O P Q R S T U V W X Y Z

Alice In Chains - Shame On You tab

(intro)

Eb(2)---------------|--------------|
Bb(3)--(9)--(1)--(2)|---12s14s12---|
Gb(2)-(10)--(0)--(2)|----xsxxsx----|
Db----(11)--(2)--(2)|----9s11s9----|
Ab-----11---(3)-----|--------------|
Eb------------------|--------------|

 								1	  2
Eb-2----------------|--------------------------------------------|---------|
Bb-3---2----1---2---|----------------------------------12s14s12--|---333---|
Gb-2---3----2---2---|---11s12s11--12s14s12--12s14s12----xsxxsx---|---333---|
Db-0---4----3---2---|----xsxxsx----xsxxsx----xsxxsx-----9s11s9---|---333---|
Ab-----4----3---0---|----9s10s9---10s12s10--10s12s10-------------|---000---|
Eb-----2----1-------|--------------------------------------------|---------|


Eb---------3-------|
Bb-3---1---0---3---|
Gb-2---2---0---2---|
Db-0---3---0---0---|
Ab-0---3---2-------|
Eb-----1---3-------|



Eb------------------------------------------------------------------------------------|
Bb------2-------------------2---------------------------------------------------------|
Gb-2p1--------1-2p1----2p1---------1----2--------s12-121212-11-11---s9-99----------s11| 
Db----2--2-0-0-----2------2--2-0-0-0-00-0---------------------------------9-9---------|
Ab------------------------------------------------------------------------------------|
Eb------------------------------------------------------------------------------------|


tab by SLOVAK
Tap to rate this tab
# A B C D E F G H I J K L M N O P Q R S T U V W X Y Z